  0
SECTION
  2
HEADER
  9
$ACADVER
  1
AC1014
  9
$HANDSEED
  5
FFFF
  9
$MEASUREMENT
 70
     1
  0
ENDSEC
  0
SECTION
  2
TABLES
  0
TABLE
  2
VPORT
  5
8
330
0
100
AcDbSymbolTable
 70
     4
  0
VPORT
  5
2E
330
8
100
AcDbSymbolTableRecord
100
AcDbViewportTableRecord
  2
*ACTIVE
 70
     0
 10
0.0
 20
0.0
 11
1.0
 21
1.0
 12
210.0
 22
148.5
 13
0.0
 23
0.0
 14
10.0
 24
10.0
 15
10.0
 25
10.0
 16
0.0
 26
0.0
 36
1.0
 17
0.0
 27
0.0
 37
0.0
 40
341.0
 41
1.24
 42
50.0
 43
0.0
 44
0.0
 50
0.0
 51
0.0
 71
     0
 72
   100
 73
     1
 74
     3
 75
     0
 76
     0
 77
     0
 78
     0
  0
ENDTAB
  0
TABLE
  2
LTYPE
  5
5
330
0
100
AcDbSymbolTable
 70
     1
  0
LTYPE
  5
14
330
5
100
AcDbSymbolTableRecord
100
AcDbLinetypeTableRecord
  2
BYBLOCK
 70
     0
  3

 72
    65
 73
     0
 40
0.0
  0
LTYPE
  5
15
330
5
100
AcDbSymbolTableRecord
100
AcDbLinetypeTableRecord
  2
BYLAYER
 70
     0
  3

 72
    65
 73
     0
 40
0.0
  0
LTYPE
  5
16
330
5
100
AcDbSymbolTableRecord
100
AcDbLinetypeTableRecord
  2
CONTINUOUS
 70
     0
  3
Solid line
 72
    65
 73
     0
 40
0.0
  0
ENDTAB
  0
TABLE
  2
LAYER
  5
2
100
AcDbSymbolTable
 70
1
  0
LAYER
  5
50
100
AcDbSymbolTableRecord
100
AcDbLayerTableRecord
  2
0
 70
0
  6
CONTINUOUS
  0
ENDTAB
  0
TABLE
  2
STYLE
  5
3
330
0
100
AcDbSymbolTable
 70
     1
  0
STYLE
  5
11
330
3
100
AcDbSymbolTableRecord
100
AcDbTextStyleTableRecord
  2
STANDARD
 70
     0
 40
0.0
 41
1.0
 50
0.0
 71
     0
 42
2.5
  3
txt
  4

  0
ENDTAB
  0
TABLE
  2
VIEW
  5
6
330
0
100
AcDbSymbolTable
 70
     0
  0
ENDTAB
  0
TABLE
  2
UCS
  5
7
330
0
100
AcDbSymbolTable
 70
     0
  0
ENDTAB
  0
TABLE
  2
APPID
  5
9
330
0
100
AcDbSymbolTable
 70
     2
  0
APPID
  5
12
330
9
100
AcDbSymbolTableRecord
100
AcDbRegAppTableRecord
  2
ACAD
 70
     0
  0
ENDTAB
  0
TABLE
  2
DIMSTYLE
  5
A
330
0
100
AcDbSymbolTable
 70
     1
  0
DIMSTYLE
105
27
330
A
100
AcDbSymbolTableRecord
100
AcDbDimStyleTableRecord
  2
ISO-25
 70
     0
  3

  4

  5

  6

  7

 40
1.0
 41
2.5
 42
0.625
 43
3.75
 44
1.25
 45
0.0
 46
0.0
 47
0.0
 48
0.0
140
2.5
141
2.5
142
0.0
143
0.03937007874016
144
1.0
145
0.0
146
1.0
147
0.625
 71
     0
 72
     0
 73
     0
 74
     0
 75
     0
 76
     0
 77
     1
 78
     8
170
     0
171
     3
172
     1
173
     0
174
     0
175
     0
176
     0
177
     0
178
     0
270
     2
271
     2
272
     2
273
     2
274
     3
340
11
275
     0
280
     0
281
     0
282
     0
283
     0
284
     8
285
     0
286
     0
287
     3
288
     0
  0
ENDTAB
  0
TABLE
  2
BLOCK_RECORD
  5
1
330
0
100
AcDbSymbolTable
 70
     1
  0
BLOCK_RECORD
  5
1F
330
1
100
AcDbSymbolTableRecord
100
AcDbBlockTableRecord
  2
*MODEL_SPACE
  0
BLOCK_RECORD
  5
1B
330
1
100
AcDbSymbolTableRecord
100
AcDbBlockTableRecord
  2
*PAPER_SPACE
  0
ENDTAB
  0
ENDSEC
  0
SECTION
  2
BLOCKS
  0
BLOCK
  5
20
330
1F
100
AcDbEntity
  8
0
100
AcDbBlockBegin
  2
*MODEL_SPACE
 70
     0
 10
0.0
 20
0.0
 30
0.0
  3
*MODEL_SPACE
  1

  0
ENDBLK
  5
21
330
1F
100
AcDbEntity
  8
0
100
AcDbBlockEnd
  0
BLOCK
  5
1C
330
1B
100
AcDbEntity
 67
     1
  8
0
100
AcDbBlockBegin
  2
*PAPER_SPACE
  1

  0
ENDBLK
  5
1D
330
1B
100
AcDbEntity
 67
     1
  8
0
100
AcDbBlockEnd
  0
ENDSEC
  0
SECTION
  2
ENTITIES
  0
SPLINE
  5
100
100
AcDbEntity
  8
0
 62
1
100
AcDbSpline
 70
8
 71
3
 72
8
 73
4
 74
0
 40
0
 40
0
 40
0
 40
0
 40
1
 40
1
 40
1
 40
1
 10
0.770248
 20
5.352521
 30
0.0
 10
0.575718
 20
5.352521
 30
0.0
 10
0.374417
 20
5.707488
 30
0.0
 10
0.216606
 20
5.593745
 30
0.0
  0
SPLINE
  5
101
100
AcDbEntity
  8
0
 62
1
100
AcDbSpline
 70
8
 71
3
 72
8
 73
4
 74
0
 40
0
 40
0
 40
0
 40
0
 40
1
 40
1
 40
1
 40
1
 10
0.216606
 20
5.593745
 30
0.0
 10
-0.082819
 20
5.377931
 30
0.0
 10
0.198220
 20
4.798421
 30
0.0
 10
0.216606
 20
4.429785
 30
0.0
  0
SPLINE
  5
102
100
AcDbEntity
  8
0
 62
1
100
AcDbSpline
 70
8
 71
3
 72
8
 73
4
 74
0
 40
0
 40
0
 40
0
 40
0
 40
1
 40
1
 40
1
 40
1
 10
0.216606
 20
4.429785
 30
0.0
 10
0.240933
 20
3.942023
 30
0.0
 10
0.341987
 20
3.073260
 30
0.0
 10
0.383367
 20
2.729815
 30
0.0
  0
SPLINE
  5
103
100
AcDbEntity
  8
0
 62
1
100
AcDbSpline
 70
8
 71
3
 72
8
 73
4
 74
0
 40
0
 40
0
 40
0
 40
0
 40
1
 40
1
 40
1
 40
1
 10
0.383367
 20
2.729815
 30
0.0
 10
0.394370
 20
2.638493
 30
0.0
 10
0.447356
 20
2.600210
 30
0.0
 10
0.401153
 20
2.584312
 30
0.0
  0
SPLINE
  5
104
100
AcDbEntity
  8
0
 62
1
100
AcDbSpline
 70
8
 71
3
 72
8
 73
4
 74
0
 40
0
 40
0
 40
0
 40
0
 40
1
 40
1
 40
1
 40
1
 10
0.401153
 20
2.584312
 30
0.0
 10
0.360256
 20
2.570240
 30
0.0
 10
0.372825
 20
2.643551
 30
0.0
 10
0.334315
 20
2.695524
 30
0.0
  0
SPLINE
  5
105
100
AcDbEntity
  8
0
 62
1
100
AcDbSpline
 70
8
 71
3
 72
8
 73
4
 74
0
 40
0
 40
0
 40
0
 40
0
 40
1
 40
1
 40
1
 40
1
 10
0.334315
 20
2.695524
 30
0.0
 10
0.298977
 20
2.743216
 30
0.0
 10
0.255067
 20
2.784791
 30
0.0
 10
0.216606
 20
2.768859
 30
0.0
  0
SPLINE
  5
106
100
AcDbEntity
  8
0
 62
1
100
AcDbSpline
 70
8
 71
3
 72
8
 73
4
 74
0
 40
0
 40
0
 40
0
 40
0
 40
1
 40
1
 40
1
 40
1
 10
0.216606
 20
2.768859
 30
0.0
 10
0.046106
 20
2.698236
 30
0.0
 10
0.046106
 20
2.285841
 30
0.0
 10
0.216606
 20
2.215218
 30
0.0
  0
SPLINE
  5
107
100
AcDbEntity
  8
0
 62
1
100
AcDbSpline
 70
8
 71
3
 72
8
 73
4
 74
0
 40
0
 40
0
 40
0
 40
0
 40
1
 40
1
 40
1
 40
1
 10
0.216606
 20
2.215218
 30
0.0
 10
0.264435
 20
2.195406
 30
0.0
 10
0.320692
 20
2.264526
 30
0.0
 10
0.358409
 20
2.323750
 30
0.0
  0
SPLINE
  5
108
100
AcDbEntity
  8
0
 62
1
100
AcDbSpline
 70
8
 71
3
 72
8
 73
4
 74
0
 40
0
 40
0
 40
0
 40
0
 40
1
 40
1
 40
1
 40
1
 10
0.358409
 20
2.323750
 30
0.0
 10
0.384073
 20
2.364048
 30
0.0
 10
0.372215
 20
2.402530
 30
0.0
 10
0.401153
 20
2.399765
 30
0.0
  0
SPLINE
  5
109
100
AcDbEntity
  8
0
 62
1
100
AcDbSpline
 70
8
 71
3
 72
8
 73
4
 74
0
 40
0
 40
0
 40
0
 40
0
 40
1
 40
1
 40
1
 40
1
 10
0.401153
 20
2.399765
 30
0.0
 10
0.427674
 20
2.397231
 30
0.0
 10
0.426427
 20
2.323942
 30
0.0
 10
0.426427
 20
2.323942
 30
0.0
  0
SPLINE
  5
10a
100
AcDbEntity
  8
0
 62
1
100
AcDbSpline
 70
8
 71
3
 72
8
 73
4
 74
0
 40
0
 40
0
 40
0
 40
0
 40
1
 40
1
 40
1
 40
1
 10
0.426427
 20
2.323942
 30
0.0
 10
0.426427
 20
2.323942
 30
0.0
 10
0.546316
 20
2.059290
 30
0.0
 10
0.561989
 20
1.917257
 30
0.0
  0
SPLINE
  5
10b
100
AcDbEntity
  8
0
 62
1
100
AcDbSpline
 70
8
 71
3
 72
8
 73
4
 74
0
 40
0
 40
0
 40
0
 40
0
 40
1
 40
1
 40
1
 40
1
 10
0.561989
 20
1.917257
 30
0.0
 10
0.564603
 20
1.893566
 30
0.0
 10
0.574919
 20
1.858765
 30
0.0
 10
0.554712
 20
1.846123
 30
0.0
  0
SPLINE
  5
10c
100
AcDbEntity
  8
0
 62
1
100
AcDbSpline
 70
8
 71
3
 72
8
 73
4
 74
0
 40
0
 40
0
 40
0
 40
0
 40
1
 40
1
 40
1
 40
1
 10
0.554712
 20
1.846123
 30
0.0
 10
0.522872
 20
1.826204
 30
0.0
 10
0.448900
 20
1.884843
 30
0.0
 10
0.448900
 20
1.884843
 30
0.0
  0
SPLINE
  5
10d
100
AcDbEntity
  8
0
 62
1
100
AcDbSpline
 70
8
 71
3
 72
8
 73
4
 74
0
 40
0
 40
0
 40
0
 40
0
 40
1
 40
1
 40
1
 40
1
 10
0.039370
 20
1.884843
 30
0.0
 10
0.039370
 20
1.884843
 30
0.0
 10
-0.038608
 20
1.222738
 30
0.0
 10
0.032059
 20
0.923387
 30
0.0
  0
SPLINE
  5
10e
100
AcDbEntity
  8
0
 62
1
100
AcDbSpline
 70
8
 71
3
 72
8
 73
4
 74
0
 40
0
 40
0
 40
0
 40
0
 40
1
 40
1
 40
1
 40
1
 10
0.032059
 20
0.923387
 30
0.0
 10
0.063662
 20
0.789513
 30
0.0
 10
0.080829
 20
0.576326
 30
0.0
 10
0.216606
 20
0.554293
 30
0.0
  0
SPLINE
  5
10f
100
AcDbEntity
  8
0
 62
1
100
AcDbSpline
 70
8
 71
3
 72
8
 73
4
 74
0
 40
0
 40
0
 40
0
 40
0
 40
1
 40
1
 40
1
 40
1
 10
0.216606
 20
0.554293
 30
0.0
 10
0.266554
 20
0.546187
 30
0.0
 10
0.320834
 20
0.609948
 30
0.0
 10
0.357507
 20
0.664714
 30
0.0
  0
SPLINE
  5
110
100
AcDbEntity
  8
0
 62
1
100
AcDbSpline
 70
8
 71
3
 72
8
 73
4
 74
0
 40
0
 40
0
 40
0
 40
0
 40
1
 40
1
 40
1
 40
1
 10
0.357507
 20
0.664714
 30
0.0
 10
0.383884
 20
0.704103
 30
0.0
 10
0.373488
 20
0.746379
 30
0.0
 10
0.401153
 20
0.738840
 30
0.0
  0
SPLINE
  5
111
100
AcDbEntity
  8
0
 62
1
100
AcDbSpline
 70
8
 71
3
 72
8
 73
4
 74
0
 40
0
 40
0
 40
0
 40
0
 40
1
 40
1
 40
1
 40
1
 10
0.401153
 20
0.738840
 30
0.0
 10
0.519855
 20
0.706489
 30
0.0
 10
0.465835
 20
0.474402
 30
0.0
 10
0.401153
 20
0.369745
 30
0.0
  0
SPLINE
  5
112
100
AcDbEntity
  8
0
 62
1
100
AcDbSpline
 70
8
 71
3
 72
8
 73
4
 74
0
 40
0
 40
0
 40
0
 40
0
 40
1
 40
1
 40
1
 40
1
 10
0.401153
 20
0.369745
 30
0.0
 10
0.328837
 20
0.252735
 30
0.0
 10
0.104375
 20
0.302208
 30
0.0
 10
0.032059
 20
0.185198
 30
0.0
  0
SPLINE
  5
113
100
AcDbEntity
  8
0
 62
1
100
AcDbSpline
 70
8
 71
3
 72
8
 73
4
 74
0
 40
0
 40
0
 40
0
 40
0
 40
1
 40
1
 40
1
 40
1
 10
0.032059
 20
0.185198
 30
0.0
 10
-0.000282
 20
0.132870
 30
0.0
 10
0.032059
 20
0.000651
 30
0.0
 10
0.032059
 20
0.000651
 30
0.0
  0
LWPOLYLINE
  5
114
100
AcDbEntity
  8
0
 62
1
100
AcDbPolyline
 90
2
 70
0
 10
0.448900
 20
1.884843
 30
0.0
 10
0.039370
 20
1.884843
 30
0.0
  0
SPLINE
  5
115
100
AcDbEntity
  8
0
 62
1
100
AcDbSpline
 70
8
 71
3
 72
8
 73
4
 74
0
 40
0
 40
0
 40
0
 40
0
 40
1
 40
1
 40
1
 40
1
 10
1.508437
 20
0.000651
 30
0.0
 10
1.508437
 20
0.000651
 30
0.0
 10
1.540777
 20
0.132870
 30
0.0
 10
1.508437
 20
0.185198
 30
0.0
  0
SPLINE
  5
116
100
AcDbEntity
  8
0
 62
1
100
AcDbSpline
 70
8
 71
3
 72
8
 73
4
 74
0
 40
0
 40
0
 40
0
 40
0
 40
1
 40
1
 40
1
 40
1
 10
1.508437
 20
0.185198
 30
0.0
 10
1.436121
 20
0.302208
 30
0.0
 10
1.211658
 20
0.252735
 30
0.0
 10
1.139342
 20
0.369745
 30
0.0
  0
SPLINE
  5
117
100
AcDbEntity
  8
0
 62
1
100
AcDbSpline
 70
8
 71
3
 72
8
 73
4
 74
0
 40
0
 40
0
 40
0
 40
0
 40
1
 40
1
 40
1
 40
1
 10
1.139342
 20
0.369745
 30
0.0
 10
1.074661
 20
0.474402
 30
0.0
 10
1.020634
 20
0.706512
 30
0.0
 10
1.139342
 20
0.738840
 30
0.0
  0
SPLINE
  5
118
100
AcDbEntity
  8
0
 62
1
100
AcDbSpline
 70
8
 71
3
 72
8
 73
4
 74
0
 40
0
 40
0
 40
0
 40
0
 40
1
 40
1
 40
1
 40
1
 10
1.139342
 20
0.738840
 30
0.0
 10
1.166828
 20
0.746325
 30
0.0
 10
1.156475
 20
0.704378
 30
0.0
 10
1.182675
 20
0.665181
 30
0.0
  0
SPLINE
  5
119
100
AcDbEntity
  8
0
 62
1
100
AcDbSpline
 70
8
 71
3
 72
8
 73
4
 74
0
 40
0
 40
0
 40
0
 40
0
 40
1
 40
1
 40
1
 40
1
 10
1.182675
 20
0.665181
 30
0.0
 10
1.219352
 20
0.610311
 30
0.0
 10
1.273799
 20
0.546164
 30
0.0
 10
1.323889
 20
0.554293
 30
0.0
  0
SPLINE
  5
11a
100
AcDbEntity
  8
0
 62
1
100
AcDbSpline
 70
8
 71
3
 72
8
 73
4
 74
0
 40
0
 40
0
 40
0
 40
0
 40
1
 40
1
 40
1
 40
1
 10
1.323889
 20
0.554293
 30
0.0
 10
1.459667
 20
0.576326
 30
0.0
 10
1.476833
 20
0.789513
 30
0.0
 10
1.508437
 20
0.923387
 30
0.0
  0
SPLINE
  5
11b
100
AcDbEntity
  8
0
 62
1
100
AcDbSpline
 70
8
 71
3
 72
8
 73
4
 74
0
 40
0
 40
0
 40
0
 40
0
 40
1
 40
1
 40
1
 40
1
 10
1.508437
 20
0.923387
 30
0.0
 10
1.579104
 20
1.222738
 30
0.0
 10
1.496063
 20
1.884843
 30
0.0
 10
1.496063
 20
1.884843
 30
0.0
  0
LWPOLYLINE
  5
11c
100
AcDbEntity
  8
0
 62
1
100
AcDbPolyline
 90
2
 70
0
 10
0.032059
 20
0.000651
 30
0.0
 10
1.508437
 20
0.000651
 30
0.0
  0
SPLINE
  5
11d
100
AcDbEntity
  8
0
 62
1
100
AcDbSpline
 70
8
 71
3
 72
8
 73
4
 74
0
 40
0
 40
0
 40
0
 40
0
 40
1
 40
1
 40
1
 40
1
 10
1.058616
 20
1.884843
 30
0.0
 10
1.058616
 20
1.884843
 30
0.0
 10
1.017948
 20
1.836396
 30
0.0
 10
0.995158
 20
1.846123
 30
0.0
  0
SPLINE
  5
11e
100
AcDbEntity
  8
0
 62
1
100
AcDbSpline
 70
8
 71
3
 72
8
 73
4
 74
0
 40
0
 40
0
 40
0
 40
0
 40
1
 40
1
 40
1
 40
1
 10
0.995158
 20
1.846123
 30
0.0
 10
0.972242
 20
1.855905
 30
0.0
 10
0.977816
 20
1.894253
 30
0.0
 10
0.979132
 20
1.919135
 30
0.0
  0
SPLINE
  5
11f
100
AcDbEntity
  8
0
 62
1
100
AcDbSpline
 70
8
 71
3
 72
8
 73
4
 74
0
 40
0
 40
0
 40
0
 40
0
 40
1
 40
1
 40
1
 40
1
 10
0.979132
 20
1.919135
 30
0.0
 10
0.986621
 20
2.060737
 30
0.0
 10
1.113655
 20
2.322704
 30
0.0
 10
1.113655
 20
2.322704
 30
0.0
  0
SPLINE
  5
120
100
AcDbEntity
  8
0
 62
1
100
AcDbSpline
 70
8
 71
3
 72
8
 73
4
 74
0
 40
0
 40
0
 40
0
 40
0
 40
1
 40
1
 40
1
 40
1
 10
1.113655
 20
2.322704
 30
0.0
 10
1.113655
 20
2.322704
 30
0.0
 10
1.112388
 20
2.397190
 30
0.0
 10
1.139342
 20
2.399765
 30
0.0
  0
SPLINE
  5
121
100
AcDbEntity
  8
0
 62
1
100
AcDbSpline
 70
8
 71
3
 72
8
 73
4
 74
0
 40
0
 40
0
 40
0
 40
0
 40
1
 40
1
 40
1
 40
1
 10
1.139342
 20
2.399765
 30
0.0
 10
1.168285
 20
2.402530
 30
0.0
 10
1.156426
 20
2.364041
 30
0.0
 10
1.182094
 20
2.323738
 30
0.0
  0
SPLINE
  5
122
100
AcDbEntity
  8
0
 62
1
100
AcDbSpline
 70
8
 71
3
 72
8
 73
4
 74
0
 40
0
 40
0
 40
0
 40
0
 40
1
 40
1
 40
1
 40
1
 10
1.182094
 20
2.323738
 30
0.0
 10
1.219811
 20
2.264517
 30
0.0
 10
1.276063
 20
2.195408
 30
0.0
 10
1.323889
 20
2.215218
 30
0.0
  0
SPLINE
  5
123
100
AcDbEntity
  8
0
 62
1
100
AcDbSpline
 70
8
 71
3
 72
8
 73
4
 74
0
 40
0
 40
0
 40
0
 40
0
 40
1
 40
1
 40
1
 40
1
 10
1.323889
 20
2.215218
 30
0.0
 10
1.494389
 20
2.285841
 30
0.0
 10
1.494389
 20
2.698236
 30
0.0
 10
1.323889
 20
2.768859
 30
0.0
  0
SPLINE
  5
124
100
AcDbEntity
  8
0
 62
1
100
AcDbSpline
 70
8
 71
3
 72
8
 73
4
 74
0
 40
0
 40
0
 40
0
 40
0
 40
1
 40
1
 40
1
 40
1
 10
1.323889
 20
2.768859
 30
0.0
 10
1.275012
 20
2.789105
 30
0.0
 10
1.217333
 20
2.716479
 30
0.0
 10
1.179634
 20
2.656449
 30
0.0
  0
SPLINE
  5
125
100
AcDbEntity
  8
0
 62
1
100
AcDbSpline
 70
8
 71
3
 72
8
 73
4
 74
0
 40
0
 40
0
 40
0
 40
0
 40
1
 40
1
 40
1
 40
1
 10
1.179634
 20
2.656449
 30
0.0
 10
1.155340
 20
2.617765
 30
0.0
 10
1.165521
 20
2.575753
 30
0.0
 10
1.139342
 20
2.584312
 30
0.0
  0
SPLINE
  5
126
100
AcDbEntity
  8
0
 62
1
100
AcDbSpline
 70
8
 71
3
 72
8
 73
4
 74
0
 40
0
 40
0
 40
0
 40
0
 40
1
 40
1
 40
1
 40
1
 10
1.139342
 20
2.584312
 30
0.0
 10
1.116373
 20
2.591822
 30
0.0
 10
1.142579
 20
2.610169
 30
0.0
 10
1.148209
 20
2.656264
 30
0.0
  0
SPLINE
  5
127
100
AcDbEntity
  8
0
 62
1
100
AcDbSpline
 70
8
 71
3
 72
8
 73
4
 74
0
 40
0
 40
0
 40
0
 40
0
 40
1
 40
1
 40
1
 40
1
 10
1.148209
 20
2.656264
 30
0.0
 10
1.181373
 20
2.927838
 30
0.0
 10
1.297562
 20
3.901923
 30
0.0
 10
1.323889
 20
4.429785
 30
0.0
  0
SPLINE
  5
128
100
AcDbEntity
  8
0
 62
1
100
AcDbSpline
 70
8
 71
3
 72
8
 73
4
 74
0
 40
0
 40
0
 40
0
 40
0
 40
1
 40
1
 40
1
 40
1
 10
1.323889
 20
4.429785
 30
0.0
 10
1.342275
 20
4.798421
 30
0.0
 10
1.623314
 20
5.377931
 30
0.0
 10
1.323889
 20
5.593745
 30
0.0
  0
SPLINE
  5
129
100
AcDbEntity
  8
0
 62
1
100
AcDbSpline
 70
8
 71
3
 72
8
 73
4
 74
0
 40
0
 40
0
 40
0
 40
0
 40
1
 40
1
 40
1
 40
1
 10
1.323889
 20
5.593745
 30
0.0
 10
1.166079
 20
5.707488
 30
0.0
 10
0.964777
 20
5.352521
 30
0.0
 10
0.770248
 20
5.352521
 30
0.0
  0
LWPOLYLINE
  5
12a
100
AcDbEntity
  8
0
 62
1
100
AcDbPolyline
 90
2
 70
0
 10
1.496063
 20
1.884843
 30
0.0
 10
1.058616
 20
1.884843
 30
0.0
  0
LWPOLYLINE
  5
12b
100
AcDbEntity
  8
0
 62
1
100
AcDbPolyline
 90
1
 70
1
 10
0.770248
 20
5.352521
 30
0.0
  0
LWPOLYLINE
  5
12c
100
AcDbEntity
  8
0
 62
7
100
AcDbPolyline
 90
2
 70
0
 10
0.000000
 20
1.491142
 30
0.0
 10
1.535433
 20
1.491142
 30
0.0
  0
LWPOLYLINE
  5
12d
100
AcDbEntity
  8
0
 62
7
100
AcDbPolyline
 90
2
 70
0
 10
0.000000
 20
1.097441
 30
0.0
 10
1.535433
 20
1.097441
 30
0.0
  0
SPLINE
  5
12e
100
AcDbEntity
  8
0
 62
7
100
AcDbSpline
 70
8
 71
3
 72
8
 73
4
 74
0
 40
0
 40
0
 40
0
 40
0
 40
1
 40
1
 40
1
 40
1
 10
0.691251
 20
2.492038
 30
0.0
 10
0.691258
 20
2.474106
 30
0.0
 10
0.674659
 20
2.457534
 30
0.0
 10
0.647709
 20
2.448567
 30
0.0
  0
SPLINE
  5
12f
100
AcDbEntity
  8
0
 62
7
100
AcDbSpline
 70
8
 71
3
 72
8
 73
4
 74
0
 40
0
 40
0
 40
0
 40
0
 40
1
 40
1
 40
1
 40
1
 10
0.647709
 20
2.448567
 30
0.0
 10
0.620758
 20
2.439599
 30
0.0
 10
0.587552
 20
2.439599
 30
0.0
 10
0.560602
 20
2.448567
 30
0.0
  0
SPLINE
  5
130
100
AcDbEntity
  8
0
 62
7
100
AcDbSpline
 70
8
 71
3
 72
8
 73
4
 74
0
 40
0
 40
0
 40
0
 40
0
 40
1
 40
1
 40
1
 40
1
 10
0.560602
 20
2.448567
 30
0.0
 10
0.533651
 20
2.457534
 30
0.0
 10
0.517053
 20
2.474106
 30
0.0
 10
0.517059
 20
2.492038
 30
0.0
  0
SPLINE
  5
131
100
AcDbEntity
  8
0
 62
7
100
AcDbSpline
 70
8
 71
3
 72
8
 73
4
 74
0
 40
0
 40
0
 40
0
 40
0
 40
1
 40
1
 40
1
 40
1
 10
0.517059
 20
2.492038
 30
0.0
 10
0.517053
 20
2.509971
 30
0.0
 10
0.533651
 20
2.526543
 30
0.0
 10
0.560602
 20
2.535510
 30
0.0
  0
SPLINE
  5
132
100
AcDbEntity
  8
0
 62
7
100
AcDbSpline
 70
8
 71
3
 72
8
 73
4
 74
0
 40
0
 40
0
 40
0
 40
0
 40
1
 40
1
 40
1
 40
1
 10
0.560602
 20
2.535510
 30
0.0
 10
0.587552
 20
2.544478
 30
0.0
 10
0.620758
 20
2.544478
 30
0.0
 10
0.647709
 20
2.535510
 30
0.0
  0
SPLINE
  5
133
100
AcDbEntity
  8
0
 62
7
100
AcDbSpline
 70
8
 71
3
 72
8
 73
4
 74
0
 40
0
 40
0
 40
0
 40
0
 40
1
 40
1
 40
1
 40
1
 10
0.647709
 20
2.535510
 30
0.0
 10
0.674659
 20
2.526543
 30
0.0
 10
0.691258
 20
2.509971
 30
0.0
 10
0.691251
 20
2.492038
 30
0.0
  0
LWPOLYLINE
  5
134
100
AcDbEntity
  8
0
 62
7
100
AcDbPolyline
 90
2
 70
0
 10
0.442913
 20
0.708870
 30
0.0
 10
1.107283
 20
0.708870
 30
0.0
  0
SPLINE
  5
135
100
AcDbEntity
  8
0
 62
7
100
AcDbSpline
 70
8
 71
3
 72
8
 73
4
 74
0
 40
0
 40
0
 40
0
 40
0
 40
1
 40
1
 40
1
 40
1
 10
1.023199
 20
2.492038
 30
0.0
 10
1.023217
 20
2.474186
 30
0.0
 10
1.006665
 20
2.457685
 30
0.0
 10
0.979784
 20
2.448757
 30
0.0
  0
SPLINE
  5
136
100
AcDbEntity
  8
0
 62
7
100
AcDbSpline
 70
8
 71
3
 72
8
 73
4
 74
0
 40
0
 40
0
 40
0
 40
0
 40
1
 40
1
 40
1
 40
1
 10
0.979784
 20
2.448757
 30
0.0
 10
0.952902
 20
2.439828
 30
0.0
 10
0.919778
 20
2.439828
 30
0.0
 10
0.892897
 20
2.448757
 30
0.0
  0
SPLINE
  5
137
100
AcDbEntity
  8
0
 62
7
100
AcDbSpline
 70
8
 71
3
 72
8
 73
4
 74
0
 40
0
 40
0
 40
0
 40
0
 40
1
 40
1
 40
1
 40
1
 10
0.892897
 20
2.448757
 30
0.0
 10
0.866015
 20
2.457685
 30
0.0
 10
0.849464
 20
2.474186
 30
0.0
 10
0.849481
 20
2.492038
 30
0.0
  0
SPLINE
  5
138
100
AcDbEntity
  8
0
 62
7
100
AcDbSpline
 70
8
 71
3
 72
8
 73
4
 74
0
 40
0
 40
0
 40
0
 40
0
 40
1
 40
1
 40
1
 40
1
 10
0.849481
 20
2.492038
 30
0.0
 10
0.849464
 20
2.509890
 30
0.0
 10
0.866015
 20
2.526390
 30
0.0
 10
0.892897
 20
2.535319
 30
0.0
  0
SPLINE
  5
139
100
AcDbEntity
  8
0
 62
7
100
AcDbSpline
 70
8
 71
3
 72
8
 73
4
 74
0
 40
0
 40
0
 40
0
 40
0
 40
1
 40
1
 40
1
 40
1
 10
0.892897
 20
2.535319
 30
0.0
 10
0.919778
 20
2.544247
 30
0.0
 10
0.952902
 20
2.544247
 30
0.0
 10
0.979784
 20
2.535319
 30
0.0
  0
SPLINE
  5
13a
100
AcDbEntity
  8
0
 62
7
100
AcDbSpline
 70
8
 71
3
 72
8
 73
4
 74
0
 40
0
 40
0
 40
0
 40
0
 40
1
 40
1
 40
1
 40
1
 10
0.979784
 20
2.535319
 30
0.0
 10
1.006665
 20
2.526390
 30
0.0
 10
1.023217
 20
2.509890
 30
0.0
 10
1.023199
 20
2.492038
 30
0.0
  0
LWPOLYLINE
  5
13b
100
AcDbEntity
  8
0
 62
7
100
AcDbPolyline
 90
1
 70
1
 10
0.691251
 20
2.492038
 30
0.0
  0
SPLINE
  5
13c
100
AcDbEntity
  8
0
 62
7
100
AcDbSpline
 70
8
 71
3
 72
8
 73
4
 74
0
 40
0
 40
0
 40
0
 40
0
 40
1
 40
1
 40
1
 40
1
 10
0.587978
 20
2.212895
 30
0.0
 10
0.587978
 20
2.212895
 30
0.0
 10
0.698099
 20
2.101718
 30
0.0
 10
0.769031
 20
2.101068
 30
0.0
  0
SPLINE
  5
13d
100
AcDbEntity
  8
0
 62
7
100
AcDbSpline
 70
8
 71
3
 72
8
 73
4
 74
0
 40
0
 40
0
 40
0
 40
0
 40
1
 40
1
 40
1
 40
1
 10
0.769031
 20
2.101068
 30
0.0
 10
0.843306
 20
2.100391
 30
0.0
 10
0.960734
 20
2.214670
 30
0.0
 10
0.960734
 20
2.214670
 30
0.0
  0
SPLINE
  5
13e
100
AcDbEntity
  8
0
 62
7
100
AcDbSpline
 70
8
 71
3
 72
8
 73
4
 74
0
 40
0
 40
0
 40
0
 40
0
 40
1
 40
1
 40
1
 40
1
 10
0.960734
 20
2.214670
 30
0.0
 10
0.960734
 20
2.214670
 30
0.0
 10
0.835105
 20
2.181032
 30
0.0
 10
0.770806
 20
2.180945
 30
0.0
  0
SPLINE
  5
13f
100
AcDbEntity
  8
0
 62
7
100
AcDbSpline
 70
8
 71
3
 72
8
 73
4
 74
0
 40
0
 40
0
 40
0
 40
0
 40
1
 40
1
 40
1
 40
1
 10
0.770806
 20
2.180945
 30
0.0
 10
0.708939
 20
2.180841
 30
0.0
 10
0.587978
 20
2.212895
 30
0.0
 10
0.587978
 20
2.212895
 30
0.0
  0
LWPOLYLINE
  5
140
100
AcDbEntity
  8
0
 62
7
100
AcDbPolyline
 90
1
 70
1
 10
1.023199
 20
2.492038
 30
0.0
  0
SPLINE
  5
141
100
AcDbEntity
  8
0
 62
7
100
AcDbSpline
 70
8
 71
3
 72
8
 73
4
 74
0
 40
0
 40
0
 40
0
 40
0
 40
1
 40
1
 40
1
 40
1
 10
0.733516
 20
2.463232
 30
0.0
 10
0.733516
 20
2.463232
 30
0.0
 10
0.795418
 20
2.409944
 30
0.0
 10
0.817086
 20
2.379395
 30
0.0
  0
SPLINE
  5
142
100
AcDbEntity
  8
0
 62
7
100
AcDbSpline
 70
8
 71
3
 72
8
 73
4
 74
0
 40
0
 40
0
 40
0
 40
0
 40
1
 40
1
 40
1
 40
1
 10
0.817086
 20
2.379395
 30
0.0
 10
0.838753
 20
2.348845
 30
0.0
 10
0.862085
 20
2.281964
 30
0.0
 10
0.862085
 20
2.281964
 30
0.0
  0
SPLINE
  5
143
100
AcDbEntity
  8
0
 62
7
100
AcDbSpline
 70
8
 71
3
 72
8
 73
4
 74
0
 40
0
 40
0
 40
0
 40
0
 40
1
 40
1
 40
1
 40
1
 10
0.862085
 20
2.281964
 30
0.0
 10
0.862085
 20
2.281964
 30
0.0
 10
0.824633
 20
2.272927
 30
0.0
 10
0.807443
 20
2.277431
 30
0.0
  0
SPLINE
  5
144
100
AcDbEntity
  8
0
 62
7
100
AcDbSpline
 70
8
 71
3
 72
8
 73
4
 74
0
 40
0
 40
0
 40
0
 40
0
 40
1
 40
1
 40
1
 40
1
 10
0.807443
 20
2.277431
 30
0.0
 10
0.791094
 20
2.281716
 30
0.0
 10
0.789524
 20
2.304866
 30
0.0
 10
0.772087
 20
2.304622
 30
0.0
  0
SPLINE
  5
145
100
AcDbEntity
  8
0
 62
7
100
AcDbSpline
 70
8
 71
3
 72
8
 73
4
 74
0
 40
0
 40
0
 40
0
 40
0
 40
1
 40
1
 40
1
 40
1
 10
0.772087
 20
2.304622
 30
0.0
 10
0.753845
 20
2.304363
 30
0.0
 10
0.736730
 20
2.275166
 30
0.0
 10
0.736730
 20
2.275166
 30
0.0
  0
SPLINE
  5
146
100
AcDbEntity
  8
0
 62
7
100
AcDbSpline
 70
8
 71
3
 72
8
 73
4
 74
0
 40
0
 40
0
 40
0
 40
0
 40
1
 40
1
 40
1
 40
1
 10
0.647530
 20
2.488348
 30
0.0
 10
0.647537
 20
2.478121
 30
0.0
 10
0.642085
 20
2.468669
 30
0.0
 10
0.633230
 20
2.463553
 30
0.0
  0
SPLINE
  5
147
100
AcDbEntity
  8
0
 62
7
100
AcDbSpline
 70
8
 71
3
 72
8
 73
4
 74
0
 40
0
 40
0
 40
0
 40
0
 40
1
 40
1
 40
1
 40
1
 10
0.633230
 20
2.463553
 30
0.0
 10
0.624375
 20
2.458438
 30
0.0
 10
0.613463
 20
2.458438
 30
0.0
 10
0.604608
 20
2.463553
 30
0.0
  0
SPLINE
  5
148
100
AcDbEntity
  8
0
 62
7
100
AcDbSpline
 70
8
 71
3
 72
8
 73
4
 74
0
 40
0
 40
0
 40
0
 40
0
 40
1
 40
1
 40
1
 40
1
 10
0.604608
 20
2.463553
 30
0.0
 10
0.595752
 20
2.468669
 30
0.0
 10
0.590301
 20
2.478121
 30
0.0
 10
0.590308
 20
2.488348
 30
0.0
  0
SPLINE
  5
149
100
AcDbEntity
  8
0
 62
7
100
AcDbSpline
 70
8
 71
3
 72
8
 73
4
 74
0
 40
0
 40
0
 40
0
 40
0
 40
1
 40
1
 40
1
 40
1
 10
0.590308
 20
2.488348
 30
0.0
 10
0.590301
 20
2.498574
 30
0.0
 10
0.595752
 20
2.508027
 30
0.0
 10
0.604608
 20
2.513143
 30
0.0
  0
SPLINE
  5
14a
100
AcDbEntity
  8
0
 62
7
100
AcDbSpline
 70
8
 71
3
 72
8
 73
4
 74
0
 40
0
 40
0
 40
0
 40
0
 40
1
 40
1
 40
1
 40
1
 10
0.604608
 20
2.513143
 30
0.0
 10
0.613463
 20
2.518258
 30
0.0
 10
0.624375
 20
2.518258
 30
0.0
 10
0.633230
 20
2.513143
 30
0.0
  0
SPLINE
  5
14b
100
AcDbEntity
  8
0
 62
7
100
AcDbSpline
 70
8
 71
3
 72
8
 73
4
 74
0
 40
0
 40
0
 40
0
 40
0
 40
1
 40
1
 40
1
 40
1
 10
0.633230
 20
2.513143
 30
0.0
 10
0.642085
 20
2.508027
 30
0.0
 10
0.647537
 20
2.498574
 30
0.0
 10
0.647530
 20
2.488348
 30
0.0
  0
LWPOLYLINE
  5
14c
100
AcDbEntity
  8
0
 62
7
100
AcDbPolyline
 90
1
 70
1
 10
0.587978
 20
2.212895
 30
0.0
  0
SPLINE
  5
14d
100
AcDbEntity
  8
0
 62
7
100
AcDbSpline
 70
8
 71
3
 72
8
 73
4
 74
0
 40
0
 40
0
 40
0
 40
0
 40
1
 40
1
 40
1
 40
1
 10
0.979333
 20
2.488348
 30
0.0
 10
0.979344
 20
2.478255
 30
0.0
 10
0.973967
 20
2.468923
 30
0.0
 10
0.965228
 20
2.463874
 30
0.0
  0
SPLINE
  5
14e
100
AcDbEntity
  8
0
 62
7
100
AcDbSpline
 70
8
 71
3
 72
8
 73
4
 74
0
 40
0
 40
0
 40
0
 40
0
 40
1
 40
1
 40
1
 40
1
 10
0.965228
 20
2.463874
 30
0.0
 10
0.956489
 20
2.458824
 30
0.0
 10
0.945719
 20
2.458824
 30
0.0
 10
0.936980
 20
2.463874
 30
0.0
  0
SPLINE
  5
14f
100
AcDbEntity
  8
0
 62
7
100
AcDbSpline
 70
8
 71
3
 72
8
 73
4
 74
0
 40
0
 40
0
 40
0
 40
0
 40
1
 40
1
 40
1
 40
1
 10
0.936980
 20
2.463874
 30
0.0
 10
0.928241
 20
2.468923
 30
0.0
 10
0.922864
 20
2.478255
 30
0.0
 10
0.922875
 20
2.488348
 30
0.0
  0
SPLINE
  5
150
100
AcDbEntity
  8
0
 62
7
100
AcDbSpline
 70
8
 71
3
 72
8
 73
4
 74
0
 40
0
 40
0
 40
0
 40
0
 40
1
 40
1
 40
1
 40
1
 10
0.922875
 20
2.488348
 30
0.0
 10
0.922864
 20
2.498441
 30
0.0
 10
0.928241
 20
2.507772
 30
0.0
 10
0.936980
 20
2.512822
 30
0.0
  0
SPLINE
  5
151
100
AcDbEntity
  8
0
 62
7
100
AcDbSpline
 70
8
 71
3
 72
8
 73
4
 74
0
 40
0
 40
0
 40
0
 40
0
 40
1
 40
1
 40
1
 40
1
 10
0.936980
 20
2.512822
 30
0.0
 10
0.945719
 20
2.517871
 30
0.0
 10
0.956489
 20
2.517871
 30
0.0
 10
0.965228
 20
2.512822
 30
0.0
  0
SPLINE
  5
152
100
AcDbEntity
  8
0
 62
7
100
AcDbSpline
 70
8
 71
3
 72
8
 73
4
 74
0
 40
0
 40
0
 40
0
 40
0
 40
1
 40
1
 40
1
 40
1
 10
0.965228
 20
2.512822
 30
0.0
 10
0.973967
 20
2.507772
 30
0.0
 10
0.979344
 20
2.498441
 30
0.0
 10
0.979333
 20
2.488348
 30
0.0
  0
LWPOLYLINE
  5
153
100
AcDbEntity
  8
0
 62
7
100
AcDbPolyline
 90
1
 70
1
 10
0.647530
 20
2.488348
 30
0.0
  0
LWPOLYLINE
  5
154
100
AcDbEntity
  8
0
 62
7
100
AcDbPolyline
 90
1
 70
1
 10
0.979333
 20
2.488348
 30
0.0
  0
ENDSEC
  0
SECTION
  2
OBJECTS
  0
DICTIONARY
  5
C
330
0
100
AcDbDictionary
  3
ACAD_GROUP
350
D
  3
ACAD_MLINESTYLE
350
17
  0
DICTIONARY
  5
D
330
C
100
AcDbDictionary
  0
DICTIONARY
  5
1A
330
C
100
AcDbDictionary
  0
DICTIONARY
  5
17
330
C
100
AcDbDictionary
  3
STANDARD
350
18
  0
DICTIONARY
  5
19
330
C
100
AcDbDictionary
  0
ENDSEC
  0
EOF
