999
DXF created by Inkscape
  0
SECTION
  2
HEADER
  9
$ACADVER
  1
AC1014
  9
$HANDSEED
  5
FFFF
  9
$MEASUREMENT
 70
     1
  0
ENDSEC
  0
SECTION
  2
TABLES
  0
TABLE
  2
VPORT
  5
8
330
0
100
AcDbSymbolTable
 70
     4
  0
VPORT
  5
2E
330
8
100
AcDbSymbolTableRecord
100
AcDbViewportTableRecord
  2
*ACTIVE
 70
     0
 10
0.0
 20
0.0
 11
1.0
 21
1.0
 12
210.0
 22
148.5
 13
0.0
 23
0.0
 14
10.0
 24
10.0
 15
10.0
 25
10.0
 16
0.0
 26
0.0
 36
1.0
 17
0.0
 27
0.0
 37
0.0
 40
341.0
 41
1.24
 42
50.0
 43
0.0
 44
0.0
 50
0.0
 51
0.0
 71
     0
 72
   100
 73
     1
 74
     3
 75
     0
 76
     0
 77
     0
 78
     0
  0
ENDTAB
  0
TABLE
  2
LTYPE
  5
5
330
0
100
AcDbSymbolTable
 70
     1
  0
LTYPE
  5
14
330
5
100
AcDbSymbolTableRecord
100
AcDbLinetypeTableRecord
  2
BYBLOCK
 70
     0
  3

 72
    65
 73
     0
 40
0.0
  0
LTYPE
  5
15
330
5
100
AcDbSymbolTableRecord
100
AcDbLinetypeTableRecord
  2
BYLAYER
 70
     0
  3

 72
    65
 73
     0
 40
0.0
  0
LTYPE
  5
16
330
5
100
AcDbSymbolTableRecord
100
AcDbLinetypeTableRecord
  2
CONTINUOUS
 70
     0
  3
Solid line
 72
    65
 73
     0
 40
0.0
  0
ENDTAB
  0
TABLE
  2
LAYER
  5
2
100
AcDbSymbolTable
 70
1
  0
LAYER
  5
50
100
AcDbSymbolTableRecord
100
AcDbLayerTableRecord
  2
0
 70
0
  6
CONTINUOUS
  0
ENDTAB
  0
TABLE
  2
STYLE
  5
3
330
0
100
AcDbSymbolTable
 70
     1
  0
STYLE
  5
11
330
3
100
AcDbSymbolTableRecord
100
AcDbTextStyleTableRecord
  2
STANDARD
 70
     0
 40
0.0
 41
1.0
 50
0.0
 71
     0
 42
2.5
  3
txt
  4

  0
ENDTAB
  0
TABLE
  2
VIEW
  5
6
330
0
100
AcDbSymbolTable
 70
     0
  0
ENDTAB
  0
TABLE
  2
UCS
  5
7
330
0
100
AcDbSymbolTable
 70
     0
  0
ENDTAB
  0
TABLE
  2
APPID
  5
9
330
0
100
AcDbSymbolTable
 70
     2
  0
APPID
  5
12
330
9
100
AcDbSymbolTableRecord
100
AcDbRegAppTableRecord
  2
ACAD
 70
     0
  0
ENDTAB
  0
TABLE
  2
DIMSTYLE
  5
A
330
0
100
AcDbSymbolTable
 70
     1
  0
DIMSTYLE
105
27
330
A
100
AcDbSymbolTableRecord
100
AcDbDimStyleTableRecord
  2
ISO-25
 70
     0
  3

  4

  5

  6

  7

 40
1.0
 41
2.5
 42
0.625
 43
3.75
 44
1.25
 45
0.0
 46
0.0
 47
0.0
 48
0.0
140
2.5
141
2.5
142
0.0
143
0.03937007874016
144
1.0
145
0.0
146
1.0
147
0.625
 71
     0
 72
     0
 73
     0
 74
     0
 75
     0
 76
     0
 77
     1
 78
     8
170
     0
171
     3
172
     1
173
     0
174
     0
175
     0
176
     0
177
     0
178
     0
270
     2
271
     2
272
     2
273
     2
274
     3
340
11
275
     0
280
     0
281
     0
282
     0
283
     0
284
     8
285
     0
286
     0
287
     3
288
     0
  0
ENDTAB
  0
TABLE
  2
BLOCK_RECORD
  5
1
330
0
100
AcDbSymbolTable
 70
     1
  0
BLOCK_RECORD
  5
1F
330
1
100
AcDbSymbolTableRecord
100
AcDbBlockTableRecord
  2
*MODEL_SPACE
  0
BLOCK_RECORD
  5
1B
330
1
100
AcDbSymbolTableRecord
100
AcDbBlockTableRecord
  2
*PAPER_SPACE
  0
ENDTAB
  0
ENDSEC
  0
SECTION
  2
BLOCKS
  0
BLOCK
  5
20
330
1F
100
AcDbEntity
  8
0
100
AcDbBlockBegin
  2
*MODEL_SPACE
 70
     0
 10
0.0
 20
0.0
 30
0.0
  3
*MODEL_SPACE
  1

  0
ENDBLK
  5
21
330
1F
100
AcDbEntity
  8
0
100
AcDbBlockEnd
  0
BLOCK
  5
1C
330
1B
100
AcDbEntity
 67
     1
  8
0
100
AcDbBlockBegin
  2
*PAPER_SPACE
  1

  0
ENDBLK
  5
1D
330
1B
100
AcDbEntity
 67
     1
  8
0
100
AcDbBlockEnd
  0
ENDSEC
  0
SECTION
  2
ENTITIES
  0
SPLINE
  5
100
100
AcDbEntity
  8
0
 62
1
100
AcDbSpline
 70
8
 71
3
 72
8
 73
4
 74
0
 40
0
 40
0
 40
0
 40
0
 40
1
 40
1
 40
1
 40
1
 10
20.868575
 20
145.017634
 30
0.0
 10
15.598115
 20
145.017634
 30
0.0
 10
10.144198
 20
153.099327
 30
0.0
 10
5.868577
 20
150.017635
 30
0.0
  0
SPLINE
  5
101
100
AcDbEntity
  8
0
 62
1
100
AcDbSpline
 70
8
 71
3
 72
8
 73
4
 74
0
 40
0
 40
0
 40
0
 40
0
 40
1
 40
1
 40
1
 40
1
 10
5.868577
 20
150.017635
 30
0.0
 10
-2.243846
 20
144.170533
 30
0.0
 10
5.370441
 20
130.005221
 30
0.0
 10
5.868577
 20
120.017633
 30
0.0
  0
SPLINE
  5
102
100
AcDbEntity
  8
0
 62
1
100
AcDbSpline
 70
8
 71
3
 72
8
 73
4
 74
0
 40
0
 40
0
 40
0
 40
0
 40
1
 40
1
 40
1
 40
1
 10
5.868577
 20
120.017633
 30
0.0
 10
6.527687
 20
106.802538
 30
0.0
 10
9.265581
 20
83.264846
 30
0.0
 10
10.386684
 20
73.959782
 30
0.0
  0
SPLINE
  5
103
100
AcDbEntity
  8
0
 62
1
100
AcDbSpline
 70
8
 71
3
 72
8
 73
4
 74
0
 40
0
 40
0
 40
0
 40
0
 40
1
 40
1
 40
1
 40
1
 10
10.386684
 20
73.959782
 30
0.0
 10
10.684787
 20
71.485562
 30
0.0
 10
12.120378
 20
70.448356
 30
0.0
 10
10.868575
 20
70.017632
 30
0.0
  0
SPLINE
  5
104
100
AcDbEntity
  8
0
 62
1
100
AcDbSpline
 70
8
 71
3
 72
8
 73
4
 74
0
 40
0
 40
0
 40
0
 40
0
 40
1
 40
1
 40
1
 40
1
 10
10.868575
 20
70.017632
 30
0.0
 10
9.760534
 20
69.636372
 30
0.0
 10
10.101061
 20
71.622607
 30
0.0
 10
9.057708
 20
73.030732
 30
0.0
  0
SPLINE
  5
105
100
AcDbEntity
  8
0
 62
1
100
AcDbSpline
 70
8
 71
3
 72
8
 73
4
 74
0
 40
0
 40
0
 40
0
 40
0
 40
1
 40
1
 40
1
 40
1
 10
9.057708
 20
73.030732
 30
0.0
 10
8.100291
 20
74.322875
 30
0.0
 10
6.910609
 20
75.449258
 30
0.0
 10
5.868574
 20
75.017633
 30
0.0
  0
SPLINE
  5
106
100
AcDbEntity
  8
0
 62
1
100
AcDbSpline
 70
8
 71
3
 72
8
 73
4
 74
0
 40
0
 40
0
 40
0
 40
0
 40
1
 40
1
 40
1
 40
1
 10
5.868574
 20
75.017633
 30
0.0
 10
1.249178
 20
73.104217
 30
0.0
 10
1.249175
 20
61.931045
 30
0.0
 10
5.868577
 20
60.017632
 30
0.0
  0
SPLINE
  5
107
100
AcDbEntity
  8
0
 62
1
100
AcDbSpline
 70
8
 71
3
 72
8
 73
4
 74
0
 40
0
 40
0
 40
0
 40
0
 40
1
 40
1
 40
1
 40
1
 10
5.868577
 20
60.017632
 30
0.0
 10
7.164431
 20
59.480873
 30
0.0
 10
8.688620
 20
61.353562
 30
0.0
 10
9.710496
 20
62.958136
 30
0.0
  0
SPLINE
  5
108
100
AcDbEntity
  8
0
 62
1
100
AcDbSpline
 70
8
 71
3
 72
8
 73
4
 74
0
 40
0
 40
0
 40
0
 40
0
 40
1
 40
1
 40
1
 40
1
 10
9.710496
 20
62.958136
 30
0.0
 10
10.405821
 20
64.049952
 30
0.0
 10
10.084556
 20
65.092535
 30
0.0
 10
10.868575
 20
65.017633
 30
0.0
  0
SPLINE
  5
109
100
AcDbEntity
  8
0
 62
1
100
AcDbSpline
 70
8
 71
3
 72
8
 73
4
 74
0
 40
0
 40
0
 40
0
 40
0
 40
1
 40
1
 40
1
 40
1
 10
10.868575
 20
65.017633
 30
0.0
 10
11.587107
 20
64.948985
 30
0.0
 10
11.553337
 20
62.963346
 30
0.0
 10
11.553337
 20
62.963346
 30
0.0
  0
SPLINE
  5
10a
100
AcDbEntity
  8
0
 62
1
100
AcDbSpline
 70
8
 71
3
 72
8
 73
4
 74
0
 40
0
 40
0
 40
0
 40
0
 40
1
 40
1
 40
1
 40
1
 10
15.226160
 20
51.944885
 30
0.0
 10
15.466331
 20
50.661556
 30
0.0
 10
16.625539
 20
50.017635
 30
0.0
 10
15.029011
 20
50.017635
 30
0.0
  0
LWPOLYLINE
  5
10b
100
AcDbEntity
  8
0
 62
1
100
AcDbPolyline
 90
2
 70
0
 10
11.553337
 20
62.963346
 30
0.0
 10
15.226160
 20
51.944885
 30
0.0
  0
SPLINE
  5
10c
100
AcDbEntity
  8
0
 62
1
100
AcDbSpline
 70
8
 71
3
 72
8
 73
4
 74
0
 40
0
 40
0
 40
0
 40
0
 40
1
 40
1
 40
1
 40
1
 10
0.868576
 20
50.017635
 30
0.0
 10
0.868576
 20
50.017635
 30
0.0
 10
-1.046031
 20
33.128043
 30
0.0
 10
0.868576
 20
25.017634
 30
0.0
  0
SPLINE
  5
10d
100
AcDbEntity
  8
0
 62
1
100
AcDbSpline
 70
8
 71
3
 72
8
 73
4
 74
0
 40
0
 40
0
 40
0
 40
0
 40
1
 40
1
 40
1
 40
1
 10
0.868576
 20
25.017634
 30
0.0
 10
1.724815
 20
21.390551
 30
0.0
 10
2.189920
 20
15.614599
 30
0.0
 10
5.868577
 20
15.017634
 30
0.0
  0
SPLINE
  5
10e
100
AcDbEntity
  8
0
 62
1
100
AcDbSpline
 70
8
 71
3
 72
8
 73
4
 74
0
 40
0
 40
0
 40
0
 40
0
 40
1
 40
1
 40
1
 40
1
 10
5.868577
 20
15.017634
 30
0.0
 10
7.221849
 20
14.798029
 30
0.0
 10
8.692464
 20
16.525514
 30
0.0
 10
9.686070
 20
18.009311
 30
0.0
  0
SPLINE
  5
10f
100
AcDbEntity
  8
0
 62
1
100
AcDbSpline
 70
8
 71
3
 72
8
 73
4
 74
0
 40
0
 40
0
 40
0
 40
0
 40
1
 40
1
 40
1
 40
1
 10
9.686070
 20
18.009311
 30
0.0
 10
10.400699
 20
19.076501
 30
0.0
 10
10.119047
 20
20.221908
 30
0.0
 10
10.868575
 20
20.017636
 30
0.0
  0
SPLINE
  5
110
100
AcDbEntity
  8
0
 62
1
100
AcDbSpline
 70
8
 71
3
 72
8
 73
4
 74
0
 40
0
 40
0
 40
0
 40
0
 40
1
 40
1
 40
1
 40
1
 10
10.868575
 20
20.017636
 30
0.0
 10
14.084610
 20
19.141155
 30
0.0
 10
12.621014
 20
12.853137
 30
0.0
 10
10.868575
 20
10.017636
 30
0.0
  0
SPLINE
  5
111
100
AcDbEntity
  8
0
 62
1
100
AcDbSpline
 70
8
 71
3
 72
8
 73
4
 74
0
 40
0
 40
0
 40
0
 40
0
 40
1
 40
1
 40
1
 40
1
 10
10.868575
 20
10.017636
 30
0.0
 10
8.909293
 20
6.847445
 30
0.0
 10
2.827861
 20
8.187823
 30
0.0
 10
0.868576
 20
5.017635
 30
0.0
  0
SPLINE
  5
112
100
AcDbEntity
  8
0
 62
1
100
AcDbSpline
 70
8
 71
3
 72
8
 73
4
 74
0
 40
0
 40
0
 40
0
 40
0
 40
1
 40
1
 40
1
 40
1
 10
0.868576
 20
5.017635
 30
0.0
 10
-0.007643
 20
3.599883
 30
0.0
 10
0.868576
 20
0.017633
 30
0.0
 10
0.868576
 20
0.017633
 30
0.0
  0
SPLINE
  5
113
100
AcDbEntity
  8
0
 62
1
100
AcDbSpline
 70
8
 71
3
 72
8
 73
4
 74
0
 40
0
 40
0
 40
0
 40
0
 40
1
 40
1
 40
1
 40
1
 10
0.868576
 20
0.017633
 30
0.0
 10
10.868575
 20
0.017633
 30
0.0
 10
30.868578
 20
0.017633
 30
0.0
 10
40.868577
 20
0.017633
 30
0.0
  0
SPLINE
  5
114
100
AcDbEntity
  8
0
 62
1
100
AcDbSpline
 70
8
 71
3
 72
8
 73
4
 74
0
 40
0
 40
0
 40
0
 40
0
 40
1
 40
1
 40
1
 40
1
 10
40.868577
 20
0.017633
 30
0.0
 10
40.868577
 20
0.017633
 30
0.0
 10
41.744796
 20
3.599883
 30
0.0
 10
40.868577
 20
5.017635
 30
0.0
  0
SPLINE
  5
115
100
AcDbEntity
  8
0
 62
1
100
AcDbSpline
 70
8
 71
3
 72
8
 73
4
 74
0
 40
0
 40
0
 40
0
 40
0
 40
1
 40
1
 40
1
 40
1
 10
40.868577
 20
5.017635
 30
0.0
 10
38.909292
 20
8.187823
 30
0.0
 10
32.827860
 20
6.847445
 30
0.0
 10
30.868578
 20
10.017636
 30
0.0
  0
SPLINE
  5
116
100
AcDbEntity
  8
0
 62
1
100
AcDbSpline
 70
8
 71
3
 72
8
 73
4
 74
0
 40
0
 40
0
 40
0
 40
0
 40
1
 40
1
 40
1
 40
1
 10
30.868578
 20
10.017636
 30
0.0
 10
29.116139
 20
12.853137
 30
0.0
 10
27.652376
 20
19.141762
 30
0.0
 10
30.868578
 20
20.017636
 30
0.0
  0
SPLINE
  5
117
100
AcDbEntity
  8
0
 62
1
100
AcDbSpline
 70
8
 71
3
 72
8
 73
4
 74
0
 40
0
 40
0
 40
0
 40
0
 40
1
 40
1
 40
1
 40
1
 10
30.868578
 20
20.017636
 30
0.0
 10
31.613249
 20
20.220432
 30
0.0
 10
31.332757
 20
19.083940
 30
0.0
 10
32.042608
 20
18.021983
 30
0.0
  0
SPLINE
  5
118
100
AcDbEntity
  8
0
 62
1
100
AcDbSpline
 70
8
 71
3
 72
8
 73
4
 74
0
 40
0
 40
0
 40
0
 40
0
 40
1
 40
1
 40
1
 40
1
 10
32.042608
 20
18.021983
 30
0.0
 10
33.036312
 20
16.535369
 30
0.0
 10
34.511448
 20
14.797402
 30
0.0
 10
35.868576
 20
15.017634
 30
0.0
  0
SPLINE
  5
119
100
AcDbEntity
  8
0
 62
1
100
AcDbSpline
 70
8
 71
3
 72
8
 73
4
 74
0
 40
0
 40
0
 40
0
 40
0
 40
1
 40
1
 40
1
 40
1
 10
35.868576
 20
15.017634
 30
0.0
 10
39.547233
 20
15.614599
 30
0.0
 10
40.012338
 20
21.390551
 30
0.0
 10
40.868577
 20
25.017634
 30
0.0
  0
SPLINE
  5
11a
100
AcDbEntity
  8
0
 62
1
100
AcDbSpline
 70
8
 71
3
 72
8
 73
4
 74
0
 40
0
 40
0
 40
0
 40
0
 40
1
 40
1
 40
1
 40
1
 10
40.868577
 20
25.017634
 30
0.0
 10
42.783184
 20
33.128043
 30
0.0
 10
40.868577
 20
50.017635
 30
0.0
 10
40.868577
 20
50.017635
 30
0.0
  0
LWPOLYLINE
  5
11b
100
AcDbEntity
  8
0
 62
1
100
AcDbPolyline
 90
3
 70
0
 10
15.029011
 20
50.017635
 30
0.0
 10
13.030773
 20
50.017635
 30
0.0
 10
0.868576
 20
50.017635
 30
0.0
  0
SPLINE
  5
11c
100
AcDbEntity
  8
0
 62
1
100
AcDbSpline
 70
8
 71
3
 72
8
 73
4
 74
0
 40
0
 40
0
 40
0
 40
0
 40
1
 40
1
 40
1
 40
1
 10
26.962159
 20
50.017635
 30
0.0
 10
25.158271
 20
49.830276
 30
0.0
 10
26.088171
 20
50.676418
 30
0.0
 10
26.527952
 20
51.995761
 30
0.0
  0
LWPOLYLINE
  5
11d
100
AcDbEntity
  8
0
 62
1
100
AcDbPolyline
 90
3
 70
0
 10
40.868577
 20
50.017635
 30
0.0
 10
29.016686
 20
50.017635
 30
0.0
 10
26.962159
 20
50.017635
 30
0.0
  0
SPLINE
  5
11e
100
AcDbEntity
  8
0
 62
1
100
AcDbSpline
 70
8
 71
3
 72
8
 73
4
 74
0
 40
0
 40
0
 40
0
 40
0
 40
1
 40
1
 40
1
 40
1
 10
30.172629
 20
62.929787
 30
0.0
 10
30.172629
 20
62.929787
 30
0.0
 10
30.138308
 20
64.947862
 30
0.0
 10
30.868578
 20
65.017633
 30
0.0
  0
SPLINE
  5
11f
100
AcDbEntity
  8
0
 62
1
100
AcDbSpline
 70
8
 71
3
 72
8
 73
4
 74
0
 40
0
 40
0
 40
0
 40
0
 40
1
 40
1
 40
1
 40
1
 10
30.868578
 20
65.017633
 30
0.0
 10
31.652724
 20
65.092552
 30
0.0
 10
31.331425
 20
64.049760
 30
0.0
 10
32.026863
 20
62.957812
 30
0.0
  0
SPLINE
  5
120
100
AcDbEntity
  8
0
 62
1
100
AcDbSpline
 70
8
 71
3
 72
8
 73
4
 74
0
 40
0
 40
0
 40
0
 40
0
 40
1
 40
1
 40
1
 40
1
 10
32.026863
 20
62.957812
 30
0.0
 10
33.048739
 20
61.353308
 30
0.0
 10
34.572809
 20
59.480910
 30
0.0
 10
35.868576
 20
60.017632
 30
0.0
  0
SPLINE
  5
121
100
AcDbEntity
  8
0
 62
1
100
AcDbSpline
 70
8
 71
3
 72
8
 73
4
 74
0
 40
0
 40
0
 40
0
 40
0
 40
1
 40
1
 40
1
 40
1
 10
35.868576
 20
60.017632
 30
0.0
 10
40.487975
 20
61.931042
 30
0.0
 10
40.487973
 20
73.104217
 30
0.0
 10
35.868576
 20
75.017633
 30
0.0
  0
SPLINE
  5
122
100
AcDbEntity
  8
0
 62
1
100
AcDbSpline
 70
8
 71
3
 72
8
 73
4
 74
0
 40
0
 40
0
 40
0
 40
0
 40
1
 40
1
 40
1
 40
1
 10
35.868576
 20
75.017633
 30
0.0
 10
34.544325
 20
75.566157
 30
0.0
 10
32.981621
 20
73.598473
 30
0.0
 10
31.960208
 20
71.972057
 30
0.0
  0
SPLINE
  5
123
100
AcDbEntity
  8
0
 62
1
100
AcDbSpline
 70
8
 71
3
 72
8
 73
4
 74
0
 40
0
 40
0
 40
0
 40
0
 40
1
 40
1
 40
1
 40
1
 10
31.960208
 20
71.972057
 30
0.0
 10
31.302006
 20
70.923985
 30
0.0
 10
31.577839
 20
69.785738
 30
0.0
 10
30.868578
 20
70.017632
 30
0.0
  0
SPLINE
  5
124
100
AcDbEntity
  8
0
 62
1
100
AcDbSpline
 70
8
 71
3
 72
8
 73
4
 74
0
 40
0
 40
0
 40
0
 40
0
 40
1
 40
1
 40
1
 40
1
 10
30.868578
 20
70.017632
 30
0.0
 10
30.246275
 20
70.221094
 30
0.0
 10
30.956287
 20
70.718166
 30
0.0
 10
31.108800
 20
71.967042
 30
0.0
  0
SPLINE
  5
125
100
AcDbEntity
  8
0
 62
1
100
AcDbSpline
 70
8
 71
3
 72
8
 73
4
 74
0
 40
0
 40
0
 40
0
 40
0
 40
1
 40
1
 40
1
 40
1
 10
31.108800
 20
71.967042
 30
0.0
 10
32.007342
 20
79.324891
 30
0.0
 10
35.155279
 20
105.716090
 30
0.0
 10
35.868576
 20
120.017633
 30
0.0
  0
SPLINE
  5
126
100
AcDbEntity
  8
0
 62
1
100
AcDbSpline
 70
8
 71
3
 72
8
 73
4
 74
0
 40
0
 40
0
 40
0
 40
0
 40
1
 40
1
 40
1
 40
1
 10
35.868576
 20
120.017633
 30
0.0
 10
36.366712
 20
130.005221
 30
0.0
 10
43.980997
 20
144.170533
 30
0.0
 10
35.868576
 20
150.017635
 30
0.0
  0
SPLINE
  5
127
100
AcDbEntity
  8
0
 62
1
100
AcDbSpline
 70
8
 71
3
 72
8
 73
4
 74
0
 40
0
 40
0
 40
0
 40
0
 40
1
 40
1
 40
1
 40
1
 10
35.868576
 20
150.017635
 30
0.0
 10
31.592955
 20
153.099327
 30
0.0
 10
26.139038
 20
145.017634
 30
0.0
 10
20.868575
 20
145.017634
 30
0.0
  0
LWPOLYLINE
  5
128
100
AcDbEntity
  8
0
 62
1
100
AcDbPolyline
 90
2
 70
0
 10
26.527952
 20
51.995761
 30
0.0
 10
30.172629
 20
62.929787
 30
0.0
  0
LWPOLYLINE
  5
129
100
AcDbEntity
  8
0
 62
1
100
AcDbPolyline
 90
2
 70
0
 10
20.868575
 20
145.017634
 30
0.0
 10
20.868575
 20
145.017634
 30
0.0
  0
LWPOLYLINE
  5
12a
100
AcDbEntity
  8
0
 62
7
100
AcDbPolyline
 90
2
 70
0
 10
0.868576
 20
40.017624
 30
0.0
 10
40.868577
 20
40.017624
 30
0.0
  0
LWPOLYLINE
  5
12b
100
AcDbEntity
  8
0
 62
7
100
AcDbPolyline
 90
2
 70
0
 10
0.868576
 20
30.017644
 30
0.0
 10
40.868577
 20
30.017644
 30
0.0
  0
LWPOLYLINE
  5
12c
100
AcDbEntity
  8
0
 62
7
100
AcDbPolyline
 90
2
 70
0
 10
0.868576
 20
20.017636
 30
0.0
 10
40.868577
 20
20.017636
 30
0.0
  0
SPLINE
  5
12d
100
AcDbEntity
  8
0
 62
7
100
AcDbSpline
 70
8
 71
3
 72
8
 73
4
 74
0
 40
0
 40
0
 40
0
 40
0
 40
1
 40
1
 40
1
 40
1
 10
18.728293
 20
67.517627
 30
0.0
 10
18.728514
 20
67.031763
 30
0.0
 10
18.278803
 20
66.582750
 30
0.0
 10
17.548614
 20
66.339781
 30
0.0
  0
SPLINE
  5
12e
100
AcDbEntity
  8
0
 62
7
100
AcDbSpline
 70
8
 71
3
 72
8
 73
4
 74
0
 40
0
 40
0
 40
0
 40
0
 40
1
 40
1
 40
1
 40
1
 10
17.548614
 20
66.339781
 30
0.0
 10
16.818424
 20
66.096812
 30
0.0
 10
15.918730
 20
66.096812
 30
0.0
 10
15.188540
 20
66.339781
 30
0.0
  0
SPLINE
  5
12f
100
AcDbEntity
  8
0
 62
7
100
AcDbSpline
 70
8
 71
3
 72
8
 73
4
 74
0
 40
0
 40
0
 40
0
 40
0
 40
1
 40
1
 40
1
 40
1
 10
15.188540
 20
66.339781
 30
0.0
 10
14.458350
 20
66.582750
 30
0.0
 10
14.008640
 20
67.031763
 30
0.0
 10
14.008861
 20
67.517627
 30
0.0
  0
SPLINE
  5
130
100
AcDbEntity
  8
0
 62
7
100
AcDbSpline
 70
8
 71
3
 72
8
 73
4
 74
0
 40
0
 40
0
 40
0
 40
0
 40
1
 40
1
 40
1
 40
1
 10
14.008861
 20
67.517627
 30
0.0
 10
14.008640
 20
68.003492
 30
0.0
 10
14.458350
 20
68.452504
 30
0.0
 10
15.188540
 20
68.695473
 30
0.0
  0
SPLINE
  5
131
100
AcDbEntity
  8
0
 62
7
100
AcDbSpline
 70
8
 71
3
 72
8
 73
4
 74
0
 40
0
 40
0
 40
0
 40
0
 40
1
 40
1
 40
1
 40
1
 10
15.188540
 20
68.695473
 30
0.0
 10
15.918730
 20
68.938443
 30
0.0
 10
16.818424
 20
68.938443
 30
0.0
 10
17.548614
 20
68.695473
 30
0.0
  0
SPLINE
  5
132
100
AcDbEntity
  8
0
 62
7
100
AcDbSpline
 70
8
 71
3
 72
8
 73
4
 74
0
 40
0
 40
0
 40
0
 40
0
 40
1
 40
1
 40
1
 40
1
 10
17.548614
 20
68.695473
 30
0.0
 10
18.278803
 20
68.452504
 30
0.0
 10
18.728514
 20
68.003492
 30
0.0
 10
18.728293
 20
67.517627
 30
0.0
  0
LWPOLYLINE
  5
133
100
AcDbEntity
  8
0
 62
7
100
AcDbPolyline
 90
2
 70
0
 10
15.868577
 20
50.017632
 30
0.0
 10
25.868576
 20
50.017632
 30
0.0
  0
SPLINE
  5
134
100
AcDbEntity
  8
0
 62
7
100
AcDbSpline
 70
8
 71
3
 72
8
 73
4
 74
0
 40
0
 40
0
 40
0
 40
0
 40
1
 40
1
 40
1
 40
1
 10
27.721880
 20
67.517609
 30
0.0
 10
27.722427
 20
67.033910
 30
0.0
 10
27.274010
 20
66.586820
 30
0.0
 10
26.545670
 20
66.344879
 30
0.0
  0
SPLINE
  5
135
100
AcDbEntity
  8
0
 62
7
100
AcDbSpline
 70
8
 71
3
 72
8
 73
4
 74
0
 40
0
 40
0
 40
0
 40
0
 40
1
 40
1
 40
1
 40
1
 10
26.545670
 20
66.344879
 30
0.0
 10
25.817331
 20
66.102939
 30
0.0
 10
24.919821
 20
66.102939
 30
0.0
 10
24.191482
 20
66.344879
 30
0.0
  0
SPLINE
  5
136
100
AcDbEntity
  8
0
 62
7
100
AcDbSpline
 70
8
 71
3
 72
8
 73
4
 74
0
 40
0
 40
0
 40
0
 40
0
 40
1
 40
1
 40
1
 40
1
 10
24.191482
 20
66.344879
 30
0.0
 10
23.463142
 20
66.586820
 30
0.0
 10
23.014725
 20
67.033910
 30
0.0
 10
23.015271
 20
67.517609
 30
0.0
  0
SPLINE
  5
137
100
AcDbEntity
  8
0
 62
7
100
AcDbSpline
 70
8
 71
3
 72
8
 73
4
 74
0
 40
0
 40
0
 40
0
 40
0
 40
1
 40
1
 40
1
 40
1
 10
23.015271
 20
67.517609
 30
0.0
 10
23.014725
 20
68.001308
 30
0.0
 10
23.463142
 20
68.448399
 30
0.0
 10
24.191482
 20
68.690339
 30
0.0
  0
SPLINE
  5
138
100
AcDbEntity
  8
0
 62
7
100
AcDbSpline
 70
8
 71
3
 72
8
 73
4
 74
0
 40
0
 40
0
 40
0
 40
0
 40
1
 40
1
 40
1
 40
1
 10
24.191482
 20
68.690339
 30
0.0
 10
24.919821
 20
68.932279
 30
0.0
 10
25.817331
 20
68.932279
 30
0.0
 10
26.545670
 20
68.690339
 30
0.0
  0
SPLINE
  5
139
100
AcDbEntity
  8
0
 62
7
100
AcDbSpline
 70
8
 71
3
 72
8
 73
4
 74
0
 40
0
 40
0
 40
0
 40
0
 40
1
 40
1
 40
1
 40
1
 10
26.545670
 20
68.690339
 30
0.0
 10
27.274010
 20
68.448399
 30
0.0
 10
27.722427
 20
68.001308
 30
0.0
 10
27.721880
 20
67.517609
 30
0.0
  0
LWPOLYLINE
  5
13a
100
AcDbEntity
  8
0
 62
7
100
AcDbPolyline
 90
2
 70
0
 10
18.728293
 20
67.517627
 30
0.0
 10
18.728293
 20
67.517627
 30
0.0
  0
SPLINE
  5
13b
100
AcDbEntity
  8
0
 62
7
100
AcDbSpline
 70
8
 71
3
 72
8
 73
4
 74
0
 40
0
 40
0
 40
0
 40
0
 40
1
 40
1
 40
1
 40
1
 10
15.930273
 20
59.954705
 30
0.0
 10
15.930273
 20
59.954705
 30
0.0
 10
18.913828
 20
56.942547
 30
0.0
 10
20.835603
 20
56.924936
 30
0.0
  0
SPLINE
  5
13c
100
AcDbEntity
  8
0
 62
7
100
AcDbSpline
 70
8
 71
3
 72
8
 73
4
 74
0
 40
0
 40
0
 40
0
 40
0
 40
1
 40
1
 40
1
 40
1
 10
20.835603
 20
56.924936
 30
0.0
 10
22.847969
 20
56.906592
 30
0.0
 10
26.029480
 20
60.002795
 30
0.0
 10
26.029480
 20
60.002795
 30
0.0
  0
SPLINE
  5
13d
100
AcDbEntity
  8
0
 62
7
100
AcDbSpline
 70
8
 71
3
 72
8
 73
4
 74
0
 40
0
 40
0
 40
0
 40
0
 40
1
 40
1
 40
1
 40
1
 10
26.029480
 20
60.002795
 30
0.0
 10
26.029480
 20
60.002795
 30
0.0
 10
22.625787
 20
59.091443
 30
0.0
 10
20.883694
 20
59.089073
 30
0.0
  0
SPLINE
  5
13e
100
AcDbEntity
  8
0
 62
7
100
AcDbSpline
 70
8
 71
3
 72
8
 73
4
 74
0
 40
0
 40
0
 40
0
 40
0
 40
1
 40
1
 40
1
 40
1
 10
20.883694
 20
59.089073
 30
0.0
 10
19.207534
 20
59.086250
 30
0.0
 10
15.930273
 20
59.954705
 30
0.0
 10
15.930273
 20
59.954705
 30
0.0
  0
LWPOLYLINE
  5
13f
100
AcDbEntity
  8
0
 62
7
100
AcDbPolyline
 90
2
 70
0
 10
27.721880
 20
67.517609
 30
0.0
 10
27.721880
 20
67.517609
 30
0.0
  0
SPLINE
  5
140
100
AcDbEntity
  8
0
 62
7
100
AcDbSpline
 70
8
 71
3
 72
8
 73
4
 74
0
 40
0
 40
0
 40
0
 40
0
 40
1
 40
1
 40
1
 40
1
 10
19.873389
 20
66.737162
 30
0.0
 10
19.873389
 20
66.737162
 30
0.0
 10
21.550514
 20
65.293429
 30
0.0
 10
22.137570
 20
64.465736
 30
0.0
  0
SPLINE
  5
141
100
AcDbEntity
  8
0
 62
7
100
AcDbSpline
 70
8
 71
3
 72
8
 73
4
 74
0
 40
0
 40
0
 40
0
 40
0
 40
1
 40
1
 40
1
 40
1
 10
22.137570
 20
64.465736
 30
0.0
 10
22.724621
 20
63.638043
 30
0.0
 10
23.356748
 20
61.825999
 30
0.0
 10
23.356748
 20
61.825999
 30
0.0
  0
SPLINE
  5
142
100
AcDbEntity
  8
0
 62
7
100
AcDbSpline
 70
8
 71
3
 72
8
 73
4
 74
0
 40
0
 40
0
 40
0
 40
0
 40
1
 40
1
 40
1
 40
1
 10
23.356748
 20
61.825999
 30
0.0
 10
23.356748
 20
61.825999
 30
0.0
 10
22.342069
 20
61.581174
 30
0.0
 10
21.876320
 20
61.703210
 30
0.0
  0
SPLINE
  5
143
100
AcDbEntity
  8
0
 62
7
100
AcDbSpline
 70
8
 71
3
 72
8
 73
4
 74
0
 40
0
 40
0
 40
0
 40
0
 40
1
 40
1
 40
1
 40
1
 10
21.876320
 20
61.703210
 30
0.0
 10
21.433386
 20
61.819290
 30
0.0
 10
21.390844
 20
62.446510
 30
0.0
 10
20.918399
 20
62.439886
 30
0.0
  0
SPLINE
  5
144
100
AcDbEntity
  8
0
 62
7
100
AcDbSpline
 70
8
 71
3
 72
8
 73
4
 74
0
 40
0
 40
0
 40
0
 40
0
 40
1
 40
1
 40
1
 40
1
 10
20.918399
 20
62.439886
 30
0.0
 10
20.424165
 20
62.432887
 30
0.0
 10
19.960471
 20
61.641843
 30
0.0
 10
19.960471
 20
61.641843
 30
0.0
  0
SPLINE
  5
145
100
AcDbEntity
  8
0
 62
7
100
AcDbSpline
 70
8
 71
3
 72
8
 73
4
 74
0
 40
0
 40
0
 40
0
 40
0
 40
1
 40
1
 40
1
 40
1
 10
17.543737
 20
67.417639
 30
0.0
 10
17.543977
 20
67.140540
 30
0.0
 10
17.396285
 20
66.884388
 30
0.0
 10
17.156351
 20
66.745769
 30
0.0
  0
SPLINE
  5
146
100
AcDbEntity
  8
0
 62
7
100
AcDbSpline
 70
8
 71
3
 72
8
 73
4
 74
0
 40
0
 40
0
 40
0
 40
0
 40
1
 40
1
 40
1
 40
1
 10
17.156351
 20
66.745769
 30
0.0
 10
16.916417
 20
66.607150
 30
0.0
 10
16.620736
 20
66.607150
 30
0.0
 10
16.380801
 20
66.745769
 30
0.0
  0
SPLINE
  5
147
100
AcDbEntity
  8
0
 62
7
100
AcDbSpline
 70
8
 71
3
 72
8
 73
4
 74
0
 40
0
 40
0
 40
0
 40
0
 40
1
 40
1
 40
1
 40
1
 10
16.380801
 20
66.745769
 30
0.0
 10
16.140867
 20
66.884388
 30
0.0
 10
15.993175
 20
67.140540
 30
0.0
 10
15.993415
 20
67.417639
 30
0.0
  0
SPLINE
  5
148
100
AcDbEntity
  8
0
 62
7
100
AcDbSpline
 70
8
 71
3
 72
8
 73
4
 74
0
 40
0
 40
0
 40
0
 40
0
 40
1
 40
1
 40
1
 40
1
 10
15.993415
 20
67.417639
 30
0.0
 10
15.993175
 20
67.694737
 30
0.0
 10
16.140867
 20
67.950890
 30
0.0
 10
16.380801
 20
68.089509
 30
0.0
  0
SPLINE
  5
149
100
AcDbEntity
  8
0
 62
7
100
AcDbSpline
 70
8
 71
3
 72
8
 73
4
 74
0
 40
0
 40
0
 40
0
 40
0
 40
1
 40
1
 40
1
 40
1
 10
16.380801
 20
68.089509
 30
0.0
 10
16.620736
 20
68.228127
 30
0.0
 10
16.916417
 20
68.228127
 30
0.0
 10
17.156351
 20
68.089509
 30
0.0
  0
SPLINE
  5
14a
100
AcDbEntity
  8
0
 62
7
100
AcDbSpline
 70
8
 71
3
 72
8
 73
4
 74
0
 40
0
 40
0
 40
0
 40
0
 40
1
 40
1
 40
1
 40
1
 10
17.156351
 20
68.089509
 30
0.0
 10
17.396285
 20
67.950890
 30
0.0
 10
17.543977
 20
67.694737
 30
0.0
 10
17.543737
 20
67.417639
 30
0.0
  0
LWPOLYLINE
  5
14b
100
AcDbEntity
  8
0
 62
7
100
AcDbPolyline
 90
2
 70
0
 10
15.930273
 20
59.954705
 30
0.0
 10
15.930273
 20
59.954705
 30
0.0
  0
SPLINE
  5
14c
100
AcDbEntity
  8
0
 62
7
100
AcDbSpline
 70
8
 71
3
 72
8
 73
4
 74
0
 40
0
 40
0
 40
0
 40
0
 40
1
 40
1
 40
1
 40
1
 10
26.533389
 20
67.417632
 30
0.0
 10
26.533704
 20
67.144181
 30
0.0
 10
26.388001
 20
66.891367
 30
0.0
 10
26.151238
 20
66.754550
 30
0.0
  0
SPLINE
  5
14d
100
AcDbEntity
  8
0
 62
7
100
AcDbSpline
 70
8
 71
3
 72
8
 73
4
 74
0
 40
0
 40
0
 40
0
 40
0
 40
1
 40
1
 40
1
 40
1
 10
26.151238
 20
66.754550
 30
0.0
 10
25.914475
 20
66.617733
 30
0.0
 10
25.622679
 20
66.617733
 30
0.0
 10
25.385916
 20
66.754550
 30
0.0
  0
SPLINE
  5
14e
100
AcDbEntity
  8
0
 62
7
100
AcDbSpline
 70
8
 71
3
 72
8
 73
4
 74
0
 40
0
 40
0
 40
0
 40
0
 40
1
 40
1
 40
1
 40
1
 10
25.385916
 20
66.754550
 30
0.0
 10
25.149153
 20
66.891367
 30
0.0
 10
25.003450
 20
67.144181
 30
0.0
 10
25.003765
 20
67.417632
 30
0.0
  0
SPLINE
  5
14f
100
AcDbEntity
  8
0
 62
7
100
AcDbSpline
 70
8
 71
3
 72
8
 73
4
 74
0
 40
0
 40
0
 40
0
 40
0
 40
1
 40
1
 40
1
 40
1
 10
25.003765
 20
67.417632
 30
0.0
 10
25.003450
 20
67.691083
 30
0.0
 10
25.149153
 20
67.943897
 30
0.0
 10
25.385916
 20
68.080714
 30
0.0
  0
SPLINE
  5
150
100
AcDbEntity
  8
0
 62
7
100
AcDbSpline
 70
8
 71
3
 72
8
 73
4
 74
0
 40
0
 40
0
 40
0
 40
0
 40
1
 40
1
 40
1
 40
1
 10
25.385916
 20
68.080714
 30
0.0
 10
25.622679
 20
68.217531
 30
0.0
 10
25.914475
 20
68.217531
 30
0.0
 10
26.151238
 20
68.080714
 30
0.0
  0
SPLINE
  5
151
100
AcDbEntity
  8
0
 62
7
100
AcDbSpline
 70
8
 71
3
 72
8
 73
4
 74
0
 40
0
 40
0
 40
0
 40
0
 40
1
 40
1
 40
1
 40
1
 10
26.151238
 20
68.080714
 30
0.0
 10
26.388001
 20
67.943897
 30
0.0
 10
26.533704
 20
67.691083
 30
0.0
 10
26.533389
 20
67.417632
 30
0.0
  0
LWPOLYLINE
  5
152
100
AcDbEntity
  8
0
 62
7
100
AcDbPolyline
 90
2
 70
0
 10
17.543737
 20
67.417639
 30
0.0
 10
17.543737
 20
67.417639
 30
0.0
  0
LWPOLYLINE
  5
153
100
AcDbEntity
  8
0
 62
7
100
AcDbPolyline
 90
2
 70
0
 10
26.533389
 20
67.417632
 30
0.0
 10
26.533389
 20
67.417632
 30
0.0
  0
ENDSEC
  0
SECTION
  2
OBJECTS
  0
DICTIONARY
  5
C
330
0
100
AcDbDictionary
  3
ACAD_GROUP
350
D
  3
ACAD_MLINESTYLE
350
17
  0
DICTIONARY
  5
D
330
C
100
AcDbDictionary
  0
DICTIONARY
  5
1A
330
C
100
AcDbDictionary
  0
DICTIONARY
  5
17
330
C
100
AcDbDictionary
  3
STANDARD
350
18
  0
DICTIONARY
  5
19
330
C
100
AcDbDictionary
  0
ENDSEC
  0
EOF
