  0
SECTION
  2
HEADER
  9
$ACADVER
  1
AC1014
  9
$HANDSEED
  5
FFFF
  9
$MEASUREMENT
 70
     1
  0
ENDSEC
  0
SECTION
  2
TABLES
  0
TABLE
  2
VPORT
  5
8
330
0
100
AcDbSymbolTable
 70
     4
  0
VPORT
  5
2E
330
8
100
AcDbSymbolTableRecord
100
AcDbViewportTableRecord
  2
*ACTIVE
 70
     0
 10
0.0
 20
0.0
 11
1.0
 21
1.0
 12
210.0
 22
148.5
 13
0.0
 23
0.0
 14
10.0
 24
10.0
 15
10.0
 25
10.0
 16
0.0
 26
0.0
 36
1.0
 17
0.0
 27
0.0
 37
0.0
 40
341.0
 41
1.24
 42
50.0
 43
0.0
 44
0.0
 50
0.0
 51
0.0
 71
     0
 72
   100
 73
     1
 74
     3
 75
     0
 76
     0
 77
     0
 78
     0
  0
ENDTAB
  0
TABLE
  2
LTYPE
  5
5
330
0
100
AcDbSymbolTable
 70
     1
  0
LTYPE
  5
14
330
5
100
AcDbSymbolTableRecord
100
AcDbLinetypeTableRecord
  2
BYBLOCK
 70
     0
  3

 72
    65
 73
     0
 40
0.0
  0
LTYPE
  5
15
330
5
100
AcDbSymbolTableRecord
100
AcDbLinetypeTableRecord
  2
BYLAYER
 70
     0
  3

 72
    65
 73
     0
 40
0.0
  0
LTYPE
  5
16
330
5
100
AcDbSymbolTableRecord
100
AcDbLinetypeTableRecord
  2
CONTINUOUS
 70
     0
  3
Solid line
 72
    65
 73
     0
 40
0.0
  0
ENDTAB
  0
TABLE
  2
LAYER
  5
2
100
AcDbSymbolTable
 70
1
  0
LAYER
  5
50
100
AcDbSymbolTableRecord
100
AcDbLayerTableRecord
  2
0
 70
0
  6
CONTINUOUS
  0
ENDTAB
  0
TABLE
  2
STYLE
  5
3
330
0
100
AcDbSymbolTable
 70
     1
  0
STYLE
  5
11
330
3
100
AcDbSymbolTableRecord
100
AcDbTextStyleTableRecord
  2
STANDARD
 70
     0
 40
0.0
 41
1.0
 50
0.0
 71
     0
 42
2.5
  3
txt
  4

  0
ENDTAB
  0
TABLE
  2
VIEW
  5
6
330
0
100
AcDbSymbolTable
 70
     0
  0
ENDTAB
  0
TABLE
  2
UCS
  5
7
330
0
100
AcDbSymbolTable
 70
     0
  0
ENDTAB
  0
TABLE
  2
APPID
  5
9
330
0
100
AcDbSymbolTable
 70
     2
  0
APPID
  5
12
330
9
100
AcDbSymbolTableRecord
100
AcDbRegAppTableRecord
  2
ACAD
 70
     0
  0
ENDTAB
  0
TABLE
  2
DIMSTYLE
  5
A
330
0
100
AcDbSymbolTable
 70
     1
  0
DIMSTYLE
105
27
330
A
100
AcDbSymbolTableRecord
100
AcDbDimStyleTableRecord
  2
ISO-25
 70
     0
  3

  4

  5

  6

  7

 40
1.0
 41
2.5
 42
0.625
 43
3.75
 44
1.25
 45
0.0
 46
0.0
 47
0.0
 48
0.0
140
2.5
141
2.5
142
0.0
143
0.03937007874016
144
1.0
145
0.0
146
1.0
147
0.625
 71
     0
 72
     0
 73
     0
 74
     0
 75
     0
 76
     0
 77
     1
 78
     8
170
     0
171
     3
172
     1
173
     0
174
     0
175
     0
176
     0
177
     0
178
     0
270
     2
271
     2
272
     2
273
     2
274
     3
340
11
275
     0
280
     0
281
     0
282
     0
283
     0
284
     8
285
     0
286
     0
287
     3
288
     0
  0
ENDTAB
  0
TABLE
  2
BLOCK_RECORD
  5
1
330
0
100
AcDbSymbolTable
 70
     1
  0
BLOCK_RECORD
  5
1F
330
1
100
AcDbSymbolTableRecord
100
AcDbBlockTableRecord
  2
*MODEL_SPACE
  0
BLOCK_RECORD
  5
1B
330
1
100
AcDbSymbolTableRecord
100
AcDbBlockTableRecord
  2
*PAPER_SPACE
  0
ENDTAB
  0
ENDSEC
  0
SECTION
  2
BLOCKS
  0
BLOCK
  5
20
330
1F
100
AcDbEntity
  8
0
100
AcDbBlockBegin
  2
*MODEL_SPACE
 70
     0
 10
0.0
 20
0.0
 30
0.0
  3
*MODEL_SPACE
  1

  0
ENDBLK
  5
21
330
1F
100
AcDbEntity
  8
0
100
AcDbBlockEnd
  0
BLOCK
  5
1C
330
1B
100
AcDbEntity
 67
     1
  8
0
100
AcDbBlockBegin
  2
*PAPER_SPACE
  1

  0
ENDBLK
  5
1D
330
1B
100
AcDbEntity
 67
     1
  8
0
100
AcDbBlockEnd
  0
ENDSEC
  0
SECTION
  2
ENTITIES
  0
SPLINE
  5
100
100
AcDbEntity
  8
0
 62
1
100
AcDbSpline
 70
8
 71
3
 72
8
 73
4
 74
0
 40
0
 40
0
 40
0
 40
0
 40
1
 40
1
 40
1
 40
1
 10
21.102129
 20
311.567356
 30
0.0
 10
15.831668
 20
311.567356
 30
0.0
 10
10.377752
 20
319.649049
 30
0.0
 10
6.102131
 20
316.567357
 30
0.0
  0
SPLINE
  5
101
100
AcDbEntity
  8
0
 62
1
100
AcDbSpline
 70
8
 71
3
 72
8
 73
4
 74
0
 40
0
 40
0
 40
0
 40
0
 40
1
 40
1
 40
1
 40
1
 10
6.102131
 20
316.567357
 30
0.0
 10
-2.010292
 20
310.720255
 30
0.0
 10
5.603994
 20
296.554943
 30
0.0
 10
6.102131
 20
286.567355
 30
0.0
  0
SPLINE
  5
102
100
AcDbEntity
  8
0
 62
1
100
AcDbSpline
 70
8
 71
3
 72
8
 73
4
 74
0
 40
0
 40
0
 40
0
 40
0
 40
1
 40
1
 40
1
 40
1
 10
6.102131
 20
286.567355
 30
0.0
 10
6.761241
 20
273.352260
 30
0.0
 10
9.499135
 20
249.814569
 30
0.0
 10
10.620238
 20
240.509504
 30
0.0
  0
SPLINE
  5
103
100
AcDbEntity
  8
0
 62
1
100
AcDbSpline
 70
8
 71
3
 72
8
 73
4
 74
0
 40
0
 40
0
 40
0
 40
0
 40
1
 40
1
 40
1
 40
1
 10
10.620238
 20
240.509504
 30
0.0
 10
10.918340
 20
238.035285
 30
0.0
 10
12.353932
 20
236.998079
 30
0.0
 10
11.102129
 20
236.567354
 30
0.0
  0
SPLINE
  5
104
100
AcDbEntity
  8
0
 62
1
100
AcDbSpline
 70
8
 71
3
 72
8
 73
4
 74
0
 40
0
 40
0
 40
0
 40
0
 40
1
 40
1
 40
1
 40
1
 10
11.102129
 20
236.567354
 30
0.0
 10
9.994088
 20
236.186094
 30
0.0
 10
10.334615
 20
238.172329
 30
0.0
 10
9.291262
 20
239.580454
 30
0.0
  0
SPLINE
  5
105
100
AcDbEntity
  8
0
 62
1
100
AcDbSpline
 70
8
 71
3
 72
8
 73
4
 74
0
 40
0
 40
0
 40
0
 40
0
 40
1
 40
1
 40
1
 40
1
 10
9.291262
 20
239.580454
 30
0.0
 10
8.333845
 20
240.872597
 30
0.0
 10
7.144163
 20
241.998980
 30
0.0
 10
6.102128
 20
241.567355
 30
0.0
  0
SPLINE
  5
106
100
AcDbEntity
  8
0
 62
1
100
AcDbSpline
 70
8
 71
3
 72
8
 73
4
 74
0
 40
0
 40
0
 40
0
 40
0
 40
1
 40
1
 40
1
 40
1
 10
6.102128
 20
241.567355
 30
0.0
 10
1.482732
 20
239.653939
 30
0.0
 10
1.482729
 20
228.480767
 30
0.0
 10
6.102131
 20
226.567354
 30
0.0
  0
SPLINE
  5
107
100
AcDbEntity
  8
0
 62
1
100
AcDbSpline
 70
8
 71
3
 72
8
 73
4
 74
0
 40
0
 40
0
 40
0
 40
0
 40
1
 40
1
 40
1
 40
1
 10
6.102131
 20
226.567354
 30
0.0
 10
7.397985
 20
226.030596
 30
0.0
 10
8.922174
 20
227.903284
 30
0.0
 10
9.944050
 20
229.507858
 30
0.0
  0
SPLINE
  5
108
100
AcDbEntity
  8
0
 62
1
100
AcDbSpline
 70
8
 71
3
 72
8
 73
4
 74
0
 40
0
 40
0
 40
0
 40
0
 40
1
 40
1
 40
1
 40
1
 10
9.944050
 20
229.507858
 30
0.0
 10
10.639375
 20
230.599675
 30
0.0
 10
10.318110
 20
231.642257
 30
0.0
 10
11.102129
 20
231.567355
 30
0.0
  0
SPLINE
  5
109
100
AcDbEntity
  8
0
 62
1
100
AcDbSpline
 70
8
 71
3
 72
8
 73
4
 74
0
 40
0
 40
0
 40
0
 40
0
 40
1
 40
1
 40
1
 40
1
 10
11.102129
 20
231.567355
 30
0.0
 10
11.820661
 20
231.498708
 30
0.0
 10
11.786891
 20
229.513068
 30
0.0
 10
11.786891
 20
229.513068
 30
0.0
  0
SPLINE
  5
10a
100
AcDbEntity
  8
0
 62
1
100
AcDbSpline
 70
8
 71
3
 72
8
 73
4
 74
0
 40
0
 40
0
 40
0
 40
0
 40
1
 40
1
 40
1
 40
1
 10
15.459714
 20
218.494607
 30
0.0
 10
16.120713
 20
217.349722
 30
0.0
 10
15.755776
 20
216.567357
 30
0.0
 10
15.262565
 20
216.567357
 30
0.0
  0
LWPOLYLINE
  5
10b
100
AcDbEntity
  8
0
 62
1
100
AcDbPolyline
 90
2
 70
1
 10
11.786891
 20
229.513068
 30
0.0
 10
15.459714
 20
218.494607
 30
0.0
  0
SPLINE
  5
10c
100
AcDbEntity
  8
0
 62
1
100
AcDbSpline
 70
8
 71
3
 72
8
 73
4
 74
0
 40
0
 40
0
 40
0
 40
0
 40
1
 40
1
 40
1
 40
1
 10
1.102129
 20
216.567357
 30
0.0
 10
1.102129
 20
216.567357
 30
0.0
 10
-0.812477
 20
199.677765
 30
0.0
 10
1.102129
 20
191.567356
 30
0.0
  0
SPLINE
  5
10d
100
AcDbEntity
  8
0
 62
1
100
AcDbSpline
 70
8
 71
3
 72
8
 73
4
 74
0
 40
0
 40
0
 40
0
 40
0
 40
1
 40
1
 40
1
 40
1
 10
1.102129
 20
191.567356
 30
0.0
 10
1.958369
 20
187.940273
 30
0.0
 10
2.423474
 20
182.164321
 30
0.0
 10
6.102131
 20
181.567357
 30
0.0
  0
SPLINE
  5
10e
100
AcDbEntity
  8
0
 62
1
100
AcDbSpline
 70
8
 71
3
 72
8
 73
4
 74
0
 40
0
 40
0
 40
0
 40
0
 40
1
 40
1
 40
1
 40
1
 10
6.102131
 20
181.567357
 30
0.0
 10
7.455403
 20
181.347751
 30
0.0
 10
8.926018
 20
183.075236
 30
0.0
 10
9.919624
 20
184.559033
 30
0.0
  0
SPLINE
  5
10f
100
AcDbEntity
  8
0
 62
1
100
AcDbSpline
 70
8
 71
3
 72
8
 73
4
 74
0
 40
0
 40
0
 40
0
 40
0
 40
1
 40
1
 40
1
 40
1
 10
9.919624
 20
184.559033
 30
0.0
 10
10.634253
 20
185.626223
 30
0.0
 10
10.352601
 20
186.771630
 30
0.0
 10
11.102129
 20
186.567358
 30
0.0
  0
SPLINE
  5
110
100
AcDbEntity
  8
0
 62
1
100
AcDbSpline
 70
8
 71
3
 72
8
 73
4
 74
0
 40
0
 40
0
 40
0
 40
0
 40
1
 40
1
 40
1
 40
1
 10
11.102129
 20
186.567358
 30
0.0
 10
14.318164
 20
185.690877
 30
0.0
 10
12.854568
 20
179.402859
 30
0.0
 10
11.102129
 20
176.567358
 30
0.0
  0
SPLINE
  5
111
100
AcDbEntity
  8
0
 62
1
100
AcDbSpline
 70
8
 71
3
 72
8
 73
4
 74
0
 40
0
 40
0
 40
0
 40
0
 40
1
 40
1
 40
1
 40
1
 10
11.102129
 20
176.567358
 30
0.0
 10
9.142847
 20
173.397167
 30
0.0
 10
3.061415
 20
174.737545
 30
0.0
 10
1.102129
 20
171.567357
 30
0.0
  0
SPLINE
  5
112
100
AcDbEntity
  8
0
 62
1
100
AcDbSpline
 70
8
 71
3
 72
8
 73
4
 74
0
 40
0
 40
0
 40
0
 40
0
 40
1
 40
1
 40
1
 40
1
 10
1.102129
 20
171.567357
 30
0.0
 10
0.225911
 20
170.149605
 30
0.0
 10
1.102129
 20
166.567355
 30
0.0
 10
1.102129
 20
166.567355
 30
0.0
  0
LWPOLYLINE
  5
113
100
AcDbEntity
  8
0
 62
1
100
AcDbPolyline
 90
3
 70
1
 10
15.262565
 20
216.567357
 30
0.0
 10
13.264327
 20
216.567357
 30
0.0
 10
1.102129
 20
216.567357
 30
0.0
  0
SPLINE
  5
114
100
AcDbEntity
  8
0
 62
1
100
AcDbSpline
 70
8
 71
3
 72
8
 73
4
 74
0
 40
0
 40
0
 40
0
 40
0
 40
1
 40
1
 40
1
 40
1
 10
41.102131
 20
166.567355
 30
0.0
 10
41.102131
 20
166.567355
 30
0.0
 10
41.978349
 20
170.149605
 30
0.0
 10
41.102131
 20
171.567357
 30
0.0
  0
SPLINE
  5
115
100
AcDbEntity
  8
0
 62
1
100
AcDbSpline
 70
8
 71
3
 72
8
 73
4
 74
0
 40
0
 40
0
 40
0
 40
0
 40
1
 40
1
 40
1
 40
1
 10
41.102131
 20
171.567357
 30
0.0
 10
39.142846
 20
174.737545
 30
0.0
 10
33.061414
 20
173.397167
 30
0.0
 10
31.102132
 20
176.567358
 30
0.0
  0
SPLINE
  5
116
100
AcDbEntity
  8
0
 62
1
100
AcDbSpline
 70
8
 71
3
 72
8
 73
4
 74
0
 40
0
 40
0
 40
0
 40
0
 40
1
 40
1
 40
1
 40
1
 10
31.102132
 20
176.567358
 30
0.0
 10
29.349692
 20
179.402859
 30
0.0
 10
27.885930
 20
185.691484
 30
0.0
 10
31.102132
 20
186.567358
 30
0.0
  0
SPLINE
  5
117
100
AcDbEntity
  8
0
 62
1
100
AcDbSpline
 70
8
 71
3
 72
8
 73
4
 74
0
 40
0
 40
0
 40
0
 40
0
 40
1
 40
1
 40
1
 40
1
 10
31.102132
 20
186.567358
 30
0.0
 10
31.846803
 20
186.770154
 30
0.0
 10
31.566311
 20
185.633662
 30
0.0
 10
32.276162
 20
184.571705
 30
0.0
  0
SPLINE
  5
118
100
AcDbEntity
  8
0
 62
1
100
AcDbSpline
 70
8
 71
3
 72
8
 73
4
 74
0
 40
0
 40
0
 40
0
 40
0
 40
1
 40
1
 40
1
 40
1
 10
32.276162
 20
184.571705
 30
0.0
 10
33.269866
 20
183.085091
 30
0.0
 10
34.745002
 20
181.347124
 30
0.0
 10
36.102130
 20
181.567357
 30
0.0
  0
SPLINE
  5
119
100
AcDbEntity
  8
0
 62
1
100
AcDbSpline
 70
8
 71
3
 72
8
 73
4
 74
0
 40
0
 40
0
 40
0
 40
0
 40
1
 40
1
 40
1
 40
1
 10
36.102130
 20
181.567357
 30
0.0
 10
39.780787
 20
182.164321
 30
0.0
 10
40.245892
 20
187.940273
 30
0.0
 10
41.102131
 20
191.567356
 30
0.0
  0
SPLINE
  5
11a
100
AcDbEntity
  8
0
 62
1
100
AcDbSpline
 70
8
 71
3
 72
8
 73
4
 74
0
 40
0
 40
0
 40
0
 40
0
 40
1
 40
1
 40
1
 40
1
 10
41.102131
 20
191.567356
 30
0.0
 10
43.016738
 20
199.677765
 30
0.0
 10
41.102131
 20
216.567357
 30
0.0
 10
41.102131
 20
216.567357
 30
0.0
  0
LWPOLYLINE
  5
11b
100
AcDbEntity
  8
0
 62
1
100
AcDbPolyline
 90
2
 70
1
 10
1.102129
 20
166.567355
 30
0.0
 10
41.102131
 20
166.567355
 30
0.0
  0
SPLINE
  5
11c
100
AcDbEntity
  8
0
 62
1
100
AcDbSpline
 70
8
 71
3
 72
8
 73
4
 74
0
 40
0
 40
0
 40
0
 40
0
 40
1
 40
1
 40
1
 40
1
 10
27.195713
 20
216.567357
 30
0.0
 10
27.195713
 20
216.567357
 30
0.0
 10
26.358062
 20
217.335154
 30
0.0
 10
26.761506
 20
218.545484
 30
0.0
  0
LWPOLYLINE
  5
11d
100
AcDbEntity
  8
0
 62
1
100
AcDbPolyline
 90
3
 70
1
 10
41.102131
 20
216.567357
 30
0.0
 10
29.250240
 20
216.567357
 30
0.0
 10
27.195713
 20
216.567357
 30
0.0
  0
SPLINE
  5
11e
100
AcDbEntity
  8
0
 62
1
100
AcDbSpline
 70
8
 71
3
 72
8
 73
4
 74
0
 40
0
 40
0
 40
0
 40
0
 40
1
 40
1
 40
1
 40
1
 10
30.406183
 20
229.479509
 30
0.0
 10
30.406183
 20
229.479509
 30
0.0
 10
30.371862
 20
231.497584
 30
0.0
 10
31.102132
 20
231.567355
 30
0.0
  0
SPLINE
  5
11f
100
AcDbEntity
  8
0
 62
1
100
AcDbSpline
 70
8
 71
3
 72
8
 73
4
 74
0
 40
0
 40
0
 40
0
 40
0
 40
1
 40
1
 40
1
 40
1
 10
31.102132
 20
231.567355
 30
0.0
 10
31.886278
 20
231.642274
 30
0.0
 10
31.564979
 20
230.599483
 30
0.0
 10
32.260417
 20
229.507534
 30
0.0
  0
SPLINE
  5
120
100
AcDbEntity
  8
0
 62
1
100
AcDbSpline
 70
8
 71
3
 72
8
 73
4
 74
0
 40
0
 40
0
 40
0
 40
0
 40
1
 40
1
 40
1
 40
1
 10
32.260417
 20
229.507534
 30
0.0
 10
33.282293
 20
227.903030
 30
0.0
 10
34.806363
 20
226.030632
 30
0.0
 10
36.102130
 20
226.567354
 30
0.0
  0
SPLINE
  5
121
100
AcDbEntity
  8
0
 62
1
100
AcDbSpline
 70
8
 71
3
 72
8
 73
4
 74
0
 40
0
 40
0
 40
0
 40
0
 40
1
 40
1
 40
1
 40
1
 10
36.102130
 20
226.567354
 30
0.0
 10
40.721529
 20
228.480764
 30
0.0
 10
40.721526
 20
239.653939
 30
0.0
 10
36.102130
 20
241.567355
 30
0.0
  0
SPLINE
  5
122
100
AcDbEntity
  8
0
 62
1
100
AcDbSpline
 70
8
 71
3
 72
8
 73
4
 74
0
 40
0
 40
0
 40
0
 40
0
 40
1
 40
1
 40
1
 40
1
 10
36.102130
 20
241.567355
 30
0.0
 10
34.777878
 20
242.115879
 30
0.0
 10
33.215174
 20
240.148195
 30
0.0
 10
32.193761
 20
238.521779
 30
0.0
  0
SPLINE
  5
123
100
AcDbEntity
  8
0
 62
1
100
AcDbSpline
 70
8
 71
3
 72
8
 73
4
 74
0
 40
0
 40
0
 40
0
 40
0
 40
1
 40
1
 40
1
 40
1
 10
32.193761
 20
238.521779
 30
0.0
 10
31.535560
 20
237.473708
 30
0.0
 10
31.811393
 20
236.335460
 30
0.0
 10
31.102132
 20
236.567354
 30
0.0
  0
SPLINE
  5
124
100
AcDbEntity
  8
0
 62
1
100
AcDbSpline
 70
8
 71
3
 72
8
 73
4
 74
0
 40
0
 40
0
 40
0
 40
0
 40
1
 40
1
 40
1
 40
1
 10
31.102132
 20
236.567354
 30
0.0
 10
30.479829
 20
236.770816
 30
0.0
 10
31.189841
 20
237.267889
 30
0.0
 10
31.342353
 20
238.516764
 30
0.0
  0
SPLINE
  5
125
100
AcDbEntity
  8
0
 62
1
100
AcDbSpline
 70
8
 71
3
 72
8
 73
4
 74
0
 40
0
 40
0
 40
0
 40
0
 40
1
 40
1
 40
1
 40
1
 10
31.342353
 20
238.516764
 30
0.0
 10
32.240895
 20
245.874614
 30
0.0
 10
35.388833
 20
272.265812
 30
0.0
 10
36.102130
 20
286.567355
 30
0.0
  0
SPLINE
  5
126
100
AcDbEntity
  8
0
 62
1
100
AcDbSpline
 70
8
 71
3
 72
8
 73
4
 74
0
 40
0
 40
0
 40
0
 40
0
 40
1
 40
1
 40
1
 40
1
 10
36.102130
 20
286.567355
 30
0.0
 10
36.600266
 20
296.554943
 30
0.0
 10
44.214551
 20
310.720255
 30
0.0
 10
36.102130
 20
316.567357
 30
0.0
  0
SPLINE
  5
127
100
AcDbEntity
  8
0
 62
1
100
AcDbSpline
 70
8
 71
3
 72
8
 73
4
 74
0
 40
0
 40
0
 40
0
 40
0
 40
1
 40
1
 40
1
 40
1
 10
36.102130
 20
316.567357
 30
0.0
 10
31.826509
 20
319.649049
 30
0.0
 10
26.372592
 20
311.567356
 30
0.0
 10
21.102129
 20
311.567356
 30
0.0
  0
LWPOLYLINE
  5
128
100
AcDbEntity
  8
0
 62
1
100
AcDbPolyline
 90
2
 70
1
 10
26.761506
 20
218.545484
 30
0.0
 10
30.406183
 20
229.479509
 30
0.0
  0
LWPOLYLINE
  5
129
100
AcDbEntity
  8
0
 62
1
100
AcDbPolyline
 90
2
 70
1
 10
21.102129
 20
311.567356
 30
0.0
 10
21.102129
 20
311.567356
 30
0.0
  0
LWPOLYLINE
  5
12a
100
AcDbEntity
  8
0
 62
7
100
AcDbPolyline
 90
2
 70
0
 10
1.102129
 20
206.567338
 30
0.0
 10
41.102131
 20
206.567338
 30
0.0
  0
LWPOLYLINE
  5
12b
100
AcDbEntity
  8
0
 62
7
100
AcDbPolyline
 90
2
 70
0
 10
1.102129
 20
196.567358
 30
0.0
 10
41.102131
 20
196.567358
 30
0.0
  0
SPLINE
  5
12c
100
AcDbEntity
  8
0
 62
7
100
AcDbSpline
 70
8
 71
3
 72
8
 73
4
 74
0
 40
0
 40
0
 40
0
 40
0
 40
1
 40
1
 40
1
 40
1
 10
18.961847
 20
234.067350
 30
0.0
 10
18.962031
 20
233.581500
 30
0.0
 10
18.512312
 20
233.132510
 30
0.0
 10
17.782138
 20
232.889554
 30
0.0
  0
SPLINE
  5
12d
100
AcDbEntity
  8
0
 62
7
100
AcDbSpline
 70
8
 71
3
 72
8
 73
4
 74
0
 40
0
 40
0
 40
0
 40
0
 40
1
 40
1
 40
1
 40
1
 10
17.782138
 20
232.889554
 30
0.0
 10
17.051963
 20
232.646598
 30
0.0
 10
16.152298
 20
232.646598
 30
0.0
 10
15.422124
 20
232.889554
 30
0.0
  0
SPLINE
  5
12e
100
AcDbEntity
  8
0
 62
7
100
AcDbSpline
 70
8
 71
3
 72
8
 73
4
 74
0
 40
0
 40
0
 40
0
 40
0
 40
1
 40
1
 40
1
 40
1
 10
15.422124
 20
232.889554
 30
0.0
 10
14.691950
 20
233.132510
 30
0.0
 10
14.242231
 20
233.581500
 30
0.0
 10
14.242415
 20
234.067350
 30
0.0
  0
SPLINE
  5
12f
100
AcDbEntity
  8
0
 62
7
100
AcDbSpline
 70
8
 71
3
 72
8
 73
4
 74
0
 40
0
 40
0
 40
0
 40
0
 40
1
 40
1
 40
1
 40
1
 10
14.242415
 20
234.067350
 30
0.0
 10
14.242231
 20
234.553201
 30
0.0
 10
14.691950
 20
235.002191
 30
0.0
 10
15.422124
 20
235.245147
 30
0.0
  0
SPLINE
  5
130
100
AcDbEntity
  8
0
 62
7
100
AcDbSpline
 70
8
 71
3
 72
8
 73
4
 74
0
 40
0
 40
0
 40
0
 40
0
 40
1
 40
1
 40
1
 40
1
 10
15.422124
 20
235.245147
 30
0.0
 10
16.152298
 20
235.488102
 30
0.0
 10
17.051963
 20
235.488102
 30
0.0
 10
17.782138
 20
235.245147
 30
0.0
  0
SPLINE
  5
131
100
AcDbEntity
  8
0
 62
7
100
AcDbSpline
 70
8
 71
3
 72
8
 73
4
 74
0
 40
0
 40
0
 40
0
 40
0
 40
1
 40
1
 40
1
 40
1
 10
17.782138
 20
235.245147
 30
0.0
 10
18.512312
 20
235.002191
 30
0.0
 10
18.962031
 20
234.553201
 30
0.0
 10
18.961847
 20
234.067350
 30
0.0
  0
LWPOLYLINE
  5
132
100
AcDbEntity
  8
0
 62
7
100
AcDbPolyline
 90
2
 70
0
 10
12.233554
 20
186.569723
 30
0.0
 10
30.233553
 20
186.569723
 30
0.0
  0
SPLINE
  5
133
100
AcDbEntity
  8
0
 62
7
100
AcDbSpline
 70
8
 71
3
 72
8
 73
4
 74
0
 40
0
 40
0
 40
0
 40
0
 40
1
 40
1
 40
1
 40
1
 10
27.955434
 20
234.067328
 30
0.0
 10
27.955904
 20
233.583658
 30
0.0
 10
27.507470
 20
233.136614
 30
0.0
 10
26.779162
 20
232.894701
 30
0.0
  0
SPLINE
  5
134
100
AcDbEntity
  8
0
 62
7
100
AcDbSpline
 70
8
 71
3
 72
8
 73
4
 74
0
 40
0
 40
0
 40
0
 40
0
 40
1
 40
1
 40
1
 40
1
 10
26.779162
 20
232.894701
 30
0.0
 10
26.050854
 20
232.652789
 30
0.0
 10
25.153406
 20
232.652789
 30
0.0
 10
24.425098
 20
232.894701
 30
0.0
  0
SPLINE
  5
135
100
AcDbEntity
  8
0
 62
7
100
AcDbSpline
 70
8
 71
3
 72
8
 73
4
 74
0
 40
0
 40
0
 40
0
 40
0
 40
1
 40
1
 40
1
 40
1
 10
24.425098
 20
232.894701
 30
0.0
 10
23.696790
 20
233.136614
 30
0.0
 10
23.248356
 20
233.583658
 30
0.0
 10
23.248825
 20
234.067328
 30
0.0
  0
SPLINE
  5
136
100
AcDbEntity
  8
0
 62
7
100
AcDbSpline
 70
8
 71
3
 72
8
 73
4
 74
0
 40
0
 40
0
 40
0
 40
0
 40
1
 40
1
 40
1
 40
1
 10
23.248825
 20
234.067328
 30
0.0
 10
23.248356
 20
234.550997
 30
0.0
 10
23.696790
 20
234.998041
 30
0.0
 10
24.425098
 20
235.239954
 30
0.0
  0
SPLINE
  5
137
100
AcDbEntity
  8
0
 62
7
100
AcDbSpline
 70
8
 71
3
 72
8
 73
4
 74
0
 40
0
 40
0
 40
0
 40
0
 40
1
 40
1
 40
1
 40
1
 10
24.425098
 20
235.239954
 30
0.0
 10
25.153406
 20
235.481867
 30
0.0
 10
26.050854
 20
235.481867
 30
0.0
 10
26.779162
 20
235.239954
 30
0.0
  0
SPLINE
  5
138
100
AcDbEntity
  8
0
 62
7
100
AcDbSpline
 70
8
 71
3
 72
8
 73
4
 74
0
 40
0
 40
0
 40
0
 40
0
 40
1
 40
1
 40
1
 40
1
 10
26.779162
 20
235.239954
 30
0.0
 10
27.507470
 20
234.998041
 30
0.0
 10
27.955904
 20
234.550997
 30
0.0
 10
27.955434
 20
234.067328
 30
0.0
  0
LWPOLYLINE
  5
139
100
AcDbEntity
  8
0
 62
7
100
AcDbPolyline
 90
2
 70
1
 10
18.961847
 20
234.067350
 30
0.0
 10
18.961847
 20
234.067350
 30
0.0
  0
SPLINE
  5
13a
100
AcDbEntity
  8
0
 62
7
100
AcDbSpline
 70
8
 71
3
 72
8
 73
4
 74
0
 40
0
 40
0
 40
0
 40
0
 40
1
 40
1
 40
1
 40
1
 10
16.163827
 20
226.504418
 30
0.0
 10
16.163827
 20
226.504418
 30
0.0
 10
19.147382
 20
223.492261
 30
0.0
 10
21.069157
 20
223.474650
 30
0.0
  0
SPLINE
  5
13b
100
AcDbEntity
  8
0
 62
7
100
AcDbSpline
 70
8
 71
3
 72
8
 73
4
 74
0
 40
0
 40
0
 40
0
 40
0
 40
1
 40
1
 40
1
 40
1
 10
21.069157
 20
223.474650
 30
0.0
 10
23.081523
 20
223.456306
 30
0.0
 10
26.263034
 20
226.552509
 30
0.0
 10
26.263034
 20
226.552509
 30
0.0
  0
SPLINE
  5
13c
100
AcDbEntity
  8
0
 62
7
100
AcDbSpline
 70
8
 71
3
 72
8
 73
4
 74
0
 40
0
 40
0
 40
0
 40
0
 40
1
 40
1
 40
1
 40
1
 10
26.263034
 20
226.552509
 30
0.0
 10
26.263034
 20
226.552509
 30
0.0
 10
22.859340
 20
225.641157
 30
0.0
 10
21.117248
 20
225.638786
 30
0.0
  0
SPLINE
  5
13d
100
AcDbEntity
  8
0
 62
7
100
AcDbSpline
 70
8
 71
3
 72
8
 73
4
 74
0
 40
0
 40
0
 40
0
 40
0
 40
1
 40
1
 40
1
 40
1
 10
21.117248
 20
225.638786
 30
0.0
 10
19.441088
 20
225.635964
 30
0.0
 10
16.163827
 20
226.504418
 30
0.0
 10
16.163827
 20
226.504418
 30
0.0
  0
LWPOLYLINE
  5
13e
100
AcDbEntity
  8
0
 62
7
100
AcDbPolyline
 90
2
 70
1
 10
27.955434
 20
234.067328
 30
0.0
 10
27.955434
 20
234.067328
 30
0.0
  0
SPLINE
  5
13f
100
AcDbEntity
  8
0
 62
7
100
AcDbSpline
 70
8
 71
3
 72
8
 73
4
 74
0
 40
0
 40
0
 40
0
 40
0
 40
1
 40
1
 40
1
 40
1
 10
20.106943
 20
233.286885
 30
0.0
 10
20.106943
 20
233.286885
 30
0.0
 10
21.784068
 20
231.843151
 30
0.0
 10
22.371124
 20
231.015458
 30
0.0
  0
SPLINE
  5
140
100
AcDbEntity
  8
0
 62
7
100
AcDbSpline
 70
8
 71
3
 72
8
 73
4
 74
0
 40
0
 40
0
 40
0
 40
0
 40
1
 40
1
 40
1
 40
1
 10
22.371124
 20
231.015458
 30
0.0
 10
22.958175
 20
230.187766
 30
0.0
 10
23.590302
 20
228.375721
 30
0.0
 10
23.590302
 20
228.375721
 30
0.0
  0
SPLINE
  5
141
100
AcDbEntity
  8
0
 62
7
100
AcDbSpline
 70
8
 71
3
 72
8
 73
4
 74
0
 40
0
 40
0
 40
0
 40
0
 40
1
 40
1
 40
1
 40
1
 10
23.590302
 20
228.375721
 30
0.0
 10
23.590302
 20
228.375721
 30
0.0
 10
22.575622
 20
228.130896
 30
0.0
 10
22.109874
 20
228.252932
 30
0.0
  0
SPLINE
  5
142
100
AcDbEntity
  8
0
 62
7
100
AcDbSpline
 70
8
 71
3
 72
8
 73
4
 74
0
 40
0
 40
0
 40
0
 40
0
 40
1
 40
1
 40
1
 40
1
 10
22.109874
 20
228.252932
 30
0.0
 10
21.666940
 20
228.369013
 30
0.0
 10
21.624398
 20
228.996232
 30
0.0
 10
21.151952
 20
228.989608
 30
0.0
  0
SPLINE
  5
143
100
AcDbEntity
  8
0
 62
7
100
AcDbSpline
 70
8
 71
3
 72
8
 73
4
 74
0
 40
0
 40
0
 40
0
 40
0
 40
1
 40
1
 40
1
 40
1
 10
21.151952
 20
228.989608
 30
0.0
 10
20.657719
 20
228.982609
 30
0.0
 10
20.194025
 20
228.191565
 30
0.0
 10
20.194025
 20
228.191565
 30
0.0
  0
SPLINE
  5
144
100
AcDbEntity
  8
0
 62
7
100
AcDbSpline
 70
8
 71
3
 72
8
 73
4
 74
0
 40
0
 40
0
 40
0
 40
0
 40
1
 40
1
 40
1
 40
1
 10
17.777291
 20
233.967362
 30
0.0
 10
17.777489
 20
233.690292
 30
0.0
 10
17.629787
 20
233.434184
 30
0.0
 10
17.389870
 20
233.295591
 30
0.0
  0
SPLINE
  5
145
100
AcDbEntity
  8
0
 62
7
100
AcDbSpline
 70
8
 71
3
 72
8
 73
4
 74
0
 40
0
 40
0
 40
0
 40
0
 40
1
 40
1
 40
1
 40
1
 10
17.389870
 20
233.295591
 30
0.0
 10
17.149954
 20
233.156999
 30
0.0
 10
16.854307
 20
233.156999
 30
0.0
 10
16.614390
 20
233.295591
 30
0.0
  0
SPLINE
  5
146
100
AcDbEntity
  8
0
 62
7
100
AcDbSpline
 70
8
 71
3
 72
8
 73
4
 74
0
 40
0
 40
0
 40
0
 40
0
 40
1
 40
1
 40
1
 40
1
 10
16.614390
 20
233.295591
 30
0.0
 10
16.374473
 20
233.434184
 30
0.0
 10
16.226771
 20
233.690292
 30
0.0
 10
16.226969
 20
233.967362
 30
0.0
  0
SPLINE
  5
147
100
AcDbEntity
  8
0
 62
7
100
AcDbSpline
 70
8
 71
3
 72
8
 73
4
 74
0
 40
0
 40
0
 40
0
 40
0
 40
1
 40
1
 40
1
 40
1
 10
16.226969
 20
233.967362
 30
0.0
 10
16.226771
 20
234.244432
 30
0.0
 10
16.374473
 20
234.500540
 30
0.0
 10
16.614390
 20
234.639132
 30
0.0
  0
SPLINE
  5
148
100
AcDbEntity
  8
0
 62
7
100
AcDbSpline
 70
8
 71
3
 72
8
 73
4
 74
0
 40
0
 40
0
 40
0
 40
0
 40
1
 40
1
 40
1
 40
1
 10
16.614390
 20
234.639132
 30
0.0
 10
16.854307
 20
234.777724
 30
0.0
 10
17.149954
 20
234.777724
 30
0.0
 10
17.389870
 20
234.639132
 30
0.0
  0
SPLINE
  5
149
100
AcDbEntity
  8
0
 62
7
100
AcDbSpline
 70
8
 71
3
 72
8
 73
4
 74
0
 40
0
 40
0
 40
0
 40
0
 40
1
 40
1
 40
1
 40
1
 10
17.389870
 20
234.639132
 30
0.0
 10
17.629787
 20
234.500540
 30
0.0
 10
17.777489
 20
234.244432
 30
0.0
 10
17.777291
 20
233.967362
 30
0.0
  0
LWPOLYLINE
  5
14a
100
AcDbEntity
  8
0
 62
7
100
AcDbPolyline
 90
2
 70
1
 10
16.163827
 20
226.504418
 30
0.0
 10
16.163827
 20
226.504418
 30
0.0
  0
SPLINE
  5
14b
100
AcDbEntity
  8
0
 62
7
100
AcDbSpline
 70
8
 71
3
 72
8
 73
4
 74
0
 40
0
 40
0
 40
0
 40
0
 40
1
 40
1
 40
1
 40
1
 10
26.766943
 20
233.967353
 30
0.0
 10
26.767258
 20
233.693902
 30
0.0
 10
26.621555
 20
233.441088
 30
0.0
 10
26.384792
 20
233.304272
 30
0.0
  0
SPLINE
  5
14c
100
AcDbEntity
  8
0
 62
7
100
AcDbSpline
 70
8
 71
3
 72
8
 73
4
 74
0
 40
0
 40
0
 40
0
 40
0
 40
1
 40
1
 40
1
 40
1
 10
26.384792
 20
233.304272
 30
0.0
 10
26.148029
 20
233.167455
 30
0.0
 10
25.856233
 20
233.167455
 30
0.0
 10
25.619470
 20
233.304272
 30
0.0
  0
SPLINE
  5
14d
100
AcDbEntity
  8
0
 62
7
100
AcDbSpline
 70
8
 71
3
 72
8
 73
4
 74
0
 40
0
 40
0
 40
0
 40
0
 40
1
 40
1
 40
1
 40
1
 10
25.619470
 20
233.304272
 30
0.0
 10
25.382707
 20
233.441088
 30
0.0
 10
25.237004
 20
233.693902
 30
0.0
 10
25.237319
 20
233.967353
 30
0.0
  0
SPLINE
  5
14e
100
AcDbEntity
  8
0
 62
7
100
AcDbSpline
 70
8
 71
3
 72
8
 73
4
 74
0
 40
0
 40
0
 40
0
 40
0
 40
1
 40
1
 40
1
 40
1
 10
25.237319
 20
233.967353
 30
0.0
 10
25.237004
 20
234.240804
 30
0.0
 10
25.382707
 20
234.493618
 30
0.0
 10
25.619470
 20
234.630435
 30
0.0
  0
SPLINE
  5
14f
100
AcDbEntity
  8
0
 62
7
100
AcDbSpline
 70
8
 71
3
 72
8
 73
4
 74
0
 40
0
 40
0
 40
0
 40
0
 40
1
 40
1
 40
1
 40
1
 10
25.619470
 20
234.630435
 30
0.0
 10
25.856233
 20
234.767251
 30
0.0
 10
26.148029
 20
234.767251
 30
0.0
 10
26.384792
 20
234.630435
 30
0.0
  0
SPLINE
  5
150
100
AcDbEntity
  8
0
 62
7
100
AcDbSpline
 70
8
 71
3
 72
8
 73
4
 74
0
 40
0
 40
0
 40
0
 40
0
 40
1
 40
1
 40
1
 40
1
 10
26.384792
 20
234.630435
 30
0.0
 10
26.621555
 20
234.493618
 30
0.0
 10
26.767258
 20
234.240804
 30
0.0
 10
26.766943
 20
233.967353
 30
0.0
  0
LWPOLYLINE
  5
151
100
AcDbEntity
  8
0
 62
7
100
AcDbPolyline
 90
2
 70
1
 10
17.777291
 20
233.967362
 30
0.0
 10
17.777291
 20
233.967362
 30
0.0
  0
SPLINE
  5
152
100
AcDbEntity
  8
0
 62
1
100
AcDbSpline
 70
8
 71
3
 72
8
 73
4
 74
0
 40
0
 40
0
 40
0
 40
0
 40
1
 40
1
 40
1
 40
1
 10
21.102129
 20
311.567356
 30
0.0
 10
15.831668
 20
311.567356
 30
0.0
 10
10.377752
 20
319.649049
 30
0.0
 10
6.102131
 20
316.567357
 30
0.0
  0
SPLINE
  5
153
100
AcDbEntity
  8
0
 62
1
100
AcDbSpline
 70
8
 71
3
 72
8
 73
4
 74
0
 40
0
 40
0
 40
0
 40
0
 40
1
 40
1
 40
1
 40
1
 10
6.102131
 20
316.567357
 30
0.0
 10
-2.010292
 20
310.720255
 30
0.0
 10
5.603994
 20
296.554943
 30
0.0
 10
6.102131
 20
286.567355
 30
0.0
  0
SPLINE
  5
154
100
AcDbEntity
  8
0
 62
1
100
AcDbSpline
 70
8
 71
3
 72
8
 73
4
 74
0
 40
0
 40
0
 40
0
 40
0
 40
1
 40
1
 40
1
 40
1
 10
6.102131
 20
286.567355
 30
0.0
 10
6.761241
 20
273.352260
 30
0.0
 10
9.499135
 20
249.814569
 30
0.0
 10
10.620238
 20
240.509504
 30
0.0
  0
SPLINE
  5
155
100
AcDbEntity
  8
0
 62
1
100
AcDbSpline
 70
8
 71
3
 72
8
 73
4
 74
0
 40
0
 40
0
 40
0
 40
0
 40
1
 40
1
 40
1
 40
1
 10
10.620238
 20
240.509504
 30
0.0
 10
10.918340
 20
238.035285
 30
0.0
 10
12.353932
 20
236.998079
 30
0.0
 10
11.102129
 20
236.567354
 30
0.0
  0
SPLINE
  5
156
100
AcDbEntity
  8
0
 62
1
100
AcDbSpline
 70
8
 71
3
 72
8
 73
4
 74
0
 40
0
 40
0
 40
0
 40
0
 40
1
 40
1
 40
1
 40
1
 10
11.102129
 20
236.567354
 30
0.0
 10
9.994088
 20
236.186094
 30
0.0
 10
10.334615
 20
238.172329
 30
0.0
 10
9.291262
 20
239.580454
 30
0.0
  0
SPLINE
  5
157
100
AcDbEntity
  8
0
 62
1
100
AcDbSpline
 70
8
 71
3
 72
8
 73
4
 74
0
 40
0
 40
0
 40
0
 40
0
 40
1
 40
1
 40
1
 40
1
 10
9.291262
 20
239.580454
 30
0.0
 10
8.333845
 20
240.872597
 30
0.0
 10
7.144163
 20
241.998980
 30
0.0
 10
6.102128
 20
241.567355
 30
0.0
  0
SPLINE
  5
158
100
AcDbEntity
  8
0
 62
1
100
AcDbSpline
 70
8
 71
3
 72
8
 73
4
 74
0
 40
0
 40
0
 40
0
 40
0
 40
1
 40
1
 40
1
 40
1
 10
6.102128
 20
241.567355
 30
0.0
 10
1.482732
 20
239.653939
 30
0.0
 10
1.482729
 20
228.480767
 30
0.0
 10
6.102131
 20
226.567354
 30
0.0
  0
SPLINE
  5
159
100
AcDbEntity
  8
0
 62
1
100
AcDbSpline
 70
8
 71
3
 72
8
 73
4
 74
0
 40
0
 40
0
 40
0
 40
0
 40
1
 40
1
 40
1
 40
1
 10
6.102131
 20
226.567354
 30
0.0
 10
7.397985
 20
226.030596
 30
0.0
 10
8.922174
 20
227.903284
 30
0.0
 10
9.944050
 20
229.507858
 30
0.0
  0
SPLINE
  5
15a
100
AcDbEntity
  8
0
 62
1
100
AcDbSpline
 70
8
 71
3
 72
8
 73
4
 74
0
 40
0
 40
0
 40
0
 40
0
 40
1
 40
1
 40
1
 40
1
 10
9.944050
 20
229.507858
 30
0.0
 10
10.639375
 20
230.599675
 30
0.0
 10
10.318110
 20
231.642257
 30
0.0
 10
11.102129
 20
231.567355
 30
0.0
  0
SPLINE
  5
15b
100
AcDbEntity
  8
0
 62
1
100
AcDbSpline
 70
8
 71
3
 72
8
 73
4
 74
0
 40
0
 40
0
 40
0
 40
0
 40
1
 40
1
 40
1
 40
1
 10
11.102129
 20
231.567355
 30
0.0
 10
11.820661
 20
231.498708
 30
0.0
 10
11.786891
 20
229.513068
 30
0.0
 10
11.786891
 20
229.513068
 30
0.0
  0
LWPOLYLINE
  5
15c
100
AcDbEntity
  8
0
 62
7
100
AcDbPolyline
 90
2
 70
1
 10
26.766943
 20
233.967353
 30
0.0
 10
26.766943
 20
233.967353
 30
0.0
  0
SPLINE
  5
15d
100
AcDbEntity
  8
0
 62
1
100
AcDbSpline
 70
8
 71
3
 72
8
 73
4
 74
0
 40
0
 40
0
 40
0
 40
0
 40
1
 40
1
 40
1
 40
1
 10
15.459714
 20
218.494607
 30
0.0
 10
16.120713
 20
217.349722
 30
0.0
 10
15.755776
 20
216.567357
 30
0.0
 10
15.262565
 20
216.567357
 30
0.0
  0
LWPOLYLINE
  5
15e
100
AcDbEntity
  8
0
 62
1
100
AcDbPolyline
 90
2
 70
1
 10
11.786891
 20
229.513068
 30
0.0
 10
15.459714
 20
218.494607
 30
0.0
  0
SPLINE
  5
15f
100
AcDbEntity
  8
0
 62
1
100
AcDbSpline
 70
8
 71
3
 72
8
 73
4
 74
0
 40
0
 40
0
 40
0
 40
0
 40
1
 40
1
 40
1
 40
1
 10
1.102129
 20
216.567357
 30
0.0
 10
1.102129
 20
216.567357
 30
0.0
 10
-0.812477
 20
199.677765
 30
0.0
 10
1.102129
 20
191.567356
 30
0.0
  0
SPLINE
  5
160
100
AcDbEntity
  8
0
 62
1
100
AcDbSpline
 70
8
 71
3
 72
8
 73
4
 74
0
 40
0
 40
0
 40
0
 40
0
 40
1
 40
1
 40
1
 40
1
 10
1.102129
 20
191.567356
 30
0.0
 10
1.958369
 20
187.940273
 30
0.0
 10
2.423474
 20
182.164321
 30
0.0
 10
6.102131
 20
181.567357
 30
0.0
  0
SPLINE
  5
161
100
AcDbEntity
  8
0
 62
1
100
AcDbSpline
 70
8
 71
3
 72
8
 73
4
 74
0
 40
0
 40
0
 40
0
 40
0
 40
1
 40
1
 40
1
 40
1
 10
6.102131
 20
181.567357
 30
0.0
 10
7.455403
 20
181.347751
 30
0.0
 10
8.926018
 20
183.075236
 30
0.0
 10
9.919624
 20
184.559033
 30
0.0
  0
SPLINE
  5
162
100
AcDbEntity
  8
0
 62
1
100
AcDbSpline
 70
8
 71
3
 72
8
 73
4
 74
0
 40
0
 40
0
 40
0
 40
0
 40
1
 40
1
 40
1
 40
1
 10
9.919624
 20
184.559033
 30
0.0
 10
10.634253
 20
185.626223
 30
0.0
 10
10.352601
 20
186.771630
 30
0.0
 10
11.102129
 20
186.567358
 30
0.0
  0
SPLINE
  5
163
100
AcDbEntity
  8
0
 62
1
100
AcDbSpline
 70
8
 71
3
 72
8
 73
4
 74
0
 40
0
 40
0
 40
0
 40
0
 40
1
 40
1
 40
1
 40
1
 10
11.102129
 20
186.567358
 30
0.0
 10
14.318164
 20
185.690877
 30
0.0
 10
12.854568
 20
179.402859
 30
0.0
 10
11.102129
 20
176.567358
 30
0.0
  0
SPLINE
  5
164
100
AcDbEntity
  8
0
 62
1
100
AcDbSpline
 70
8
 71
3
 72
8
 73
4
 74
0
 40
0
 40
0
 40
0
 40
0
 40
1
 40
1
 40
1
 40
1
 10
11.102129
 20
176.567358
 30
0.0
 10
9.142847
 20
173.397167
 30
0.0
 10
3.061415
 20
174.737545
 30
0.0
 10
1.102129
 20
171.567357
 30
0.0
  0
SPLINE
  5
165
100
AcDbEntity
  8
0
 62
1
100
AcDbSpline
 70
8
 71
3
 72
8
 73
4
 74
0
 40
0
 40
0
 40
0
 40
0
 40
1
 40
1
 40
1
 40
1
 10
1.102129
 20
171.567357
 30
0.0
 10
0.225911
 20
170.149605
 30
0.0
 10
1.102129
 20
166.567355
 30
0.0
 10
1.102129
 20
166.567355
 30
0.0
  0
LWPOLYLINE
  5
166
100
AcDbEntity
  8
0
 62
1
100
AcDbPolyline
 90
3
 70
1
 10
15.262565
 20
216.567357
 30
0.0
 10
13.264327
 20
216.567357
 30
0.0
 10
1.102129
 20
216.567357
 30
0.0
  0
SPLINE
  5
167
100
AcDbEntity
  8
0
 62
1
100
AcDbSpline
 70
8
 71
3
 72
8
 73
4
 74
0
 40
0
 40
0
 40
0
 40
0
 40
1
 40
1
 40
1
 40
1
 10
41.102131
 20
166.567355
 30
0.0
 10
41.102131
 20
166.567355
 30
0.0
 10
41.978349
 20
170.149605
 30
0.0
 10
41.102131
 20
171.567357
 30
0.0
  0
SPLINE
  5
168
100
AcDbEntity
  8
0
 62
1
100
AcDbSpline
 70
8
 71
3
 72
8
 73
4
 74
0
 40
0
 40
0
 40
0
 40
0
 40
1
 40
1
 40
1
 40
1
 10
41.102131
 20
171.567357
 30
0.0
 10
39.142846
 20
174.737545
 30
0.0
 10
33.061414
 20
173.397167
 30
0.0
 10
31.102132
 20
176.567358
 30
0.0
  0
SPLINE
  5
169
100
AcDbEntity
  8
0
 62
1
100
AcDbSpline
 70
8
 71
3
 72
8
 73
4
 74
0
 40
0
 40
0
 40
0
 40
0
 40
1
 40
1
 40
1
 40
1
 10
31.102132
 20
176.567358
 30
0.0
 10
29.349692
 20
179.402859
 30
0.0
 10
27.885930
 20
185.691484
 30
0.0
 10
31.102132
 20
186.567358
 30
0.0
  0
SPLINE
  5
16a
100
AcDbEntity
  8
0
 62
1
100
AcDbSpline
 70
8
 71
3
 72
8
 73
4
 74
0
 40
0
 40
0
 40
0
 40
0
 40
1
 40
1
 40
1
 40
1
 10
31.102132
 20
186.567358
 30
0.0
 10
31.846803
 20
186.770154
 30
0.0
 10
31.566311
 20
185.633662
 30
0.0
 10
32.276162
 20
184.571705
 30
0.0
  0
SPLINE
  5
16b
100
AcDbEntity
  8
0
 62
1
100
AcDbSpline
 70
8
 71
3
 72
8
 73
4
 74
0
 40
0
 40
0
 40
0
 40
0
 40
1
 40
1
 40
1
 40
1
 10
32.276162
 20
184.571705
 30
0.0
 10
33.269866
 20
183.085091
 30
0.0
 10
34.745002
 20
181.347124
 30
0.0
 10
36.102130
 20
181.567357
 30
0.0
  0
SPLINE
  5
16c
100
AcDbEntity
  8
0
 62
1
100
AcDbSpline
 70
8
 71
3
 72
8
 73
4
 74
0
 40
0
 40
0
 40
0
 40
0
 40
1
 40
1
 40
1
 40
1
 10
36.102130
 20
181.567357
 30
0.0
 10
39.780787
 20
182.164321
 30
0.0
 10
40.245892
 20
187.940273
 30
0.0
 10
41.102131
 20
191.567356
 30
0.0
  0
SPLINE
  5
16d
100
AcDbEntity
  8
0
 62
1
100
AcDbSpline
 70
8
 71
3
 72
8
 73
4
 74
0
 40
0
 40
0
 40
0
 40
0
 40
1
 40
1
 40
1
 40
1
 10
41.102131
 20
191.567356
 30
0.0
 10
43.016738
 20
199.677765
 30
0.0
 10
41.102131
 20
216.567357
 30
0.0
 10
41.102131
 20
216.567357
 30
0.0
  0
LWPOLYLINE
  5
16e
100
AcDbEntity
  8
0
 62
1
100
AcDbPolyline
 90
2
 70
1
 10
1.102129
 20
166.567355
 30
0.0
 10
41.102131
 20
166.567355
 30
0.0
  0
SPLINE
  5
16f
100
AcDbEntity
  8
0
 62
1
100
AcDbSpline
 70
8
 71
3
 72
8
 73
4
 74
0
 40
0
 40
0
 40
0
 40
0
 40
1
 40
1
 40
1
 40
1
 10
27.195713
 20
216.567357
 30
0.0
 10
27.195713
 20
216.567357
 30
0.0
 10
26.358062
 20
217.335154
 30
0.0
 10
26.761506
 20
218.545484
 30
0.0
  0
LWPOLYLINE
  5
170
100
AcDbEntity
  8
0
 62
1
100
AcDbPolyline
 90
3
 70
1
 10
41.102131
 20
216.567357
 30
0.0
 10
29.250240
 20
216.567357
 30
0.0
 10
27.195713
 20
216.567357
 30
0.0
  0
SPLINE
  5
171
100
AcDbEntity
  8
0
 62
1
100
AcDbSpline
 70
8
 71
3
 72
8
 73
4
 74
0
 40
0
 40
0
 40
0
 40
0
 40
1
 40
1
 40
1
 40
1
 10
30.406183
 20
229.479509
 30
0.0
 10
30.406183
 20
229.479509
 30
0.0
 10
30.371862
 20
231.497584
 30
0.0
 10
31.102132
 20
231.567355
 30
0.0
  0
SPLINE
  5
172
100
AcDbEntity
  8
0
 62
1
100
AcDbSpline
 70
8
 71
3
 72
8
 73
4
 74
0
 40
0
 40
0
 40
0
 40
0
 40
1
 40
1
 40
1
 40
1
 10
31.102132
 20
231.567355
 30
0.0
 10
31.886278
 20
231.642274
 30
0.0
 10
31.564979
 20
230.599483
 30
0.0
 10
32.260417
 20
229.507534
 30
0.0
  0
SPLINE
  5
173
100
AcDbEntity
  8
0
 62
1
100
AcDbSpline
 70
8
 71
3
 72
8
 73
4
 74
0
 40
0
 40
0
 40
0
 40
0
 40
1
 40
1
 40
1
 40
1
 10
32.260417
 20
229.507534
 30
0.0
 10
33.282293
 20
227.903030
 30
0.0
 10
34.806363
 20
226.030632
 30
0.0
 10
36.102130
 20
226.567354
 30
0.0
  0
SPLINE
  5
174
100
AcDbEntity
  8
0
 62
1
100
AcDbSpline
 70
8
 71
3
 72
8
 73
4
 74
0
 40
0
 40
0
 40
0
 40
0
 40
1
 40
1
 40
1
 40
1
 10
36.102130
 20
226.567354
 30
0.0
 10
40.721529
 20
228.480764
 30
0.0
 10
40.721526
 20
239.653939
 30
0.0
 10
36.102130
 20
241.567355
 30
0.0
  0
SPLINE
  5
175
100
AcDbEntity
  8
0
 62
1
100
AcDbSpline
 70
8
 71
3
 72
8
 73
4
 74
0
 40
0
 40
0
 40
0
 40
0
 40
1
 40
1
 40
1
 40
1
 10
36.102130
 20
241.567355
 30
0.0
 10
34.777878
 20
242.115879
 30
0.0
 10
33.215174
 20
240.148195
 30
0.0
 10
32.193761
 20
238.521779
 30
0.0
  0
SPLINE
  5
176
100
AcDbEntity
  8
0
 62
1
100
AcDbSpline
 70
8
 71
3
 72
8
 73
4
 74
0
 40
0
 40
0
 40
0
 40
0
 40
1
 40
1
 40
1
 40
1
 10
32.193761
 20
238.521779
 30
0.0
 10
31.535560
 20
237.473708
 30
0.0
 10
31.811393
 20
236.335460
 30
0.0
 10
31.102132
 20
236.567354
 30
0.0
  0
SPLINE
  5
177
100
AcDbEntity
  8
0
 62
1
100
AcDbSpline
 70
8
 71
3
 72
8
 73
4
 74
0
 40
0
 40
0
 40
0
 40
0
 40
1
 40
1
 40
1
 40
1
 10
31.102132
 20
236.567354
 30
0.0
 10
30.479829
 20
236.770816
 30
0.0
 10
31.189841
 20
237.267889
 30
0.0
 10
31.342353
 20
238.516764
 30
0.0
  0
SPLINE
  5
178
100
AcDbEntity
  8
0
 62
1
100
AcDbSpline
 70
8
 71
3
 72
8
 73
4
 74
0
 40
0
 40
0
 40
0
 40
0
 40
1
 40
1
 40
1
 40
1
 10
31.342353
 20
238.516764
 30
0.0
 10
32.240895
 20
245.874614
 30
0.0
 10
35.388833
 20
272.265812
 30
0.0
 10
36.102130
 20
286.567355
 30
0.0
  0
SPLINE
  5
179
100
AcDbEntity
  8
0
 62
1
100
AcDbSpline
 70
8
 71
3
 72
8
 73
4
 74
0
 40
0
 40
0
 40
0
 40
0
 40
1
 40
1
 40
1
 40
1
 10
36.102130
 20
286.567355
 30
0.0
 10
36.600266
 20
296.554943
 30
0.0
 10
44.214551
 20
310.720255
 30
0.0
 10
36.102130
 20
316.567357
 30
0.0
  0
SPLINE
  5
17a
100
AcDbEntity
  8
0
 62
1
100
AcDbSpline
 70
8
 71
3
 72
8
 73
4
 74
0
 40
0
 40
0
 40
0
 40
0
 40
1
 40
1
 40
1
 40
1
 10
36.102130
 20
316.567357
 30
0.0
 10
31.826509
 20
319.649049
 30
0.0
 10
26.372592
 20
311.567356
 30
0.0
 10
21.102129
 20
311.567356
 30
0.0
  0
LWPOLYLINE
  5
17b
100
AcDbEntity
  8
0
 62
1
100
AcDbPolyline
 90
2
 70
1
 10
26.761506
 20
218.545484
 30
0.0
 10
30.406183
 20
229.479509
 30
0.0
  0
LWPOLYLINE
  5
17c
100
AcDbEntity
  8
0
 62
1
100
AcDbPolyline
 90
2
 70
1
 10
21.102129
 20
311.567356
 30
0.0
 10
21.102129
 20
311.567356
 30
0.0
  0
LWPOLYLINE
  5
17d
100
AcDbEntity
  8
0
 62
7
100
AcDbPolyline
 90
2
 70
0
 10
1.102129
 20
206.567338
 30
0.0
 10
41.102131
 20
206.567338
 30
0.0
  0
LWPOLYLINE
  5
17e
100
AcDbEntity
  8
0
 62
7
100
AcDbPolyline
 90
2
 70
0
 10
1.102129
 20
196.567358
 30
0.0
 10
41.102131
 20
196.567358
 30
0.0
  0
SPLINE
  5
17f
100
AcDbEntity
  8
0
 62
7
100
AcDbSpline
 70
8
 71
3
 72
8
 73
4
 74
0
 40
0
 40
0
 40
0
 40
0
 40
1
 40
1
 40
1
 40
1
 10
18.961847
 20
234.067350
 30
0.0
 10
18.962031
 20
233.581500
 30
0.0
 10
18.512312
 20
233.132510
 30
0.0
 10
17.782138
 20
232.889554
 30
0.0
  0
SPLINE
  5
180
100
AcDbEntity
  8
0
 62
7
100
AcDbSpline
 70
8
 71
3
 72
8
 73
4
 74
0
 40
0
 40
0
 40
0
 40
0
 40
1
 40
1
 40
1
 40
1
 10
17.782138
 20
232.889554
 30
0.0
 10
17.051963
 20
232.646598
 30
0.0
 10
16.152298
 20
232.646598
 30
0.0
 10
15.422124
 20
232.889554
 30
0.0
  0
SPLINE
  5
181
100
AcDbEntity
  8
0
 62
7
100
AcDbSpline
 70
8
 71
3
 72
8
 73
4
 74
0
 40
0
 40
0
 40
0
 40
0
 40
1
 40
1
 40
1
 40
1
 10
15.422124
 20
232.889554
 30
0.0
 10
14.691950
 20
233.132510
 30
0.0
 10
14.242231
 20
233.581500
 30
0.0
 10
14.242415
 20
234.067350
 30
0.0
  0
SPLINE
  5
182
100
AcDbEntity
  8
0
 62
7
100
AcDbSpline
 70
8
 71
3
 72
8
 73
4
 74
0
 40
0
 40
0
 40
0
 40
0
 40
1
 40
1
 40
1
 40
1
 10
14.242415
 20
234.067350
 30
0.0
 10
14.242231
 20
234.553201
 30
0.0
 10
14.691950
 20
235.002191
 30
0.0
 10
15.422124
 20
235.245147
 30
0.0
  0
SPLINE
  5
183
100
AcDbEntity
  8
0
 62
7
100
AcDbSpline
 70
8
 71
3
 72
8
 73
4
 74
0
 40
0
 40
0
 40
0
 40
0
 40
1
 40
1
 40
1
 40
1
 10
15.422124
 20
235.245147
 30
0.0
 10
16.152298
 20
235.488102
 30
0.0
 10
17.051963
 20
235.488102
 30
0.0
 10
17.782138
 20
235.245147
 30
0.0
  0
SPLINE
  5
184
100
AcDbEntity
  8
0
 62
7
100
AcDbSpline
 70
8
 71
3
 72
8
 73
4
 74
0
 40
0
 40
0
 40
0
 40
0
 40
1
 40
1
 40
1
 40
1
 10
17.782138
 20
235.245147
 30
0.0
 10
18.512312
 20
235.002191
 30
0.0
 10
18.962031
 20
234.553201
 30
0.0
 10
18.961847
 20
234.067350
 30
0.0
  0
LWPOLYLINE
  5
185
100
AcDbEntity
  8
0
 62
7
100
AcDbPolyline
 90
2
 70
0
 10
12.233554
 20
186.569723
 30
0.0
 10
30.233553
 20
186.569723
 30
0.0
  0
SPLINE
  5
186
100
AcDbEntity
  8
0
 62
7
100
AcDbSpline
 70
8
 71
3
 72
8
 73
4
 74
0
 40
0
 40
0
 40
0
 40
0
 40
1
 40
1
 40
1
 40
1
 10
27.955434
 20
234.067328
 30
0.0
 10
27.955904
 20
233.583658
 30
0.0
 10
27.507470
 20
233.136614
 30
0.0
 10
26.779162
 20
232.894701
 30
0.0
  0
SPLINE
  5
187
100
AcDbEntity
  8
0
 62
7
100
AcDbSpline
 70
8
 71
3
 72
8
 73
4
 74
0
 40
0
 40
0
 40
0
 40
0
 40
1
 40
1
 40
1
 40
1
 10
26.779162
 20
232.894701
 30
0.0
 10
26.050854
 20
232.652789
 30
0.0
 10
25.153406
 20
232.652789
 30
0.0
 10
24.425098
 20
232.894701
 30
0.0
  0
SPLINE
  5
188
100
AcDbEntity
  8
0
 62
7
100
AcDbSpline
 70
8
 71
3
 72
8
 73
4
 74
0
 40
0
 40
0
 40
0
 40
0
 40
1
 40
1
 40
1
 40
1
 10
24.425098
 20
232.894701
 30
0.0
 10
23.696790
 20
233.136614
 30
0.0
 10
23.248356
 20
233.583658
 30
0.0
 10
23.248825
 20
234.067328
 30
0.0
  0
SPLINE
  5
189
100
AcDbEntity
  8
0
 62
7
100
AcDbSpline
 70
8
 71
3
 72
8
 73
4
 74
0
 40
0
 40
0
 40
0
 40
0
 40
1
 40
1
 40
1
 40
1
 10
23.248825
 20
234.067328
 30
0.0
 10
23.248356
 20
234.550997
 30
0.0
 10
23.696790
 20
234.998041
 30
0.0
 10
24.425098
 20
235.239954
 30
0.0
  0
SPLINE
  5
18a
100
AcDbEntity
  8
0
 62
7
100
AcDbSpline
 70
8
 71
3
 72
8
 73
4
 74
0
 40
0
 40
0
 40
0
 40
0
 40
1
 40
1
 40
1
 40
1
 10
24.425098
 20
235.239954
 30
0.0
 10
25.153406
 20
235.481867
 30
0.0
 10
26.050854
 20
235.481867
 30
0.0
 10
26.779162
 20
235.239954
 30
0.0
  0
SPLINE
  5
18b
100
AcDbEntity
  8
0
 62
7
100
AcDbSpline
 70
8
 71
3
 72
8
 73
4
 74
0
 40
0
 40
0
 40
0
 40
0
 40
1
 40
1
 40
1
 40
1
 10
26.779162
 20
235.239954
 30
0.0
 10
27.507470
 20
234.998041
 30
0.0
 10
27.955904
 20
234.550997
 30
0.0
 10
27.955434
 20
234.067328
 30
0.0
  0
LWPOLYLINE
  5
18c
100
AcDbEntity
  8
0
 62
7
100
AcDbPolyline
 90
2
 70
1
 10
18.961847
 20
234.067350
 30
0.0
 10
18.961847
 20
234.067350
 30
0.0
  0
SPLINE
  5
18d
100
AcDbEntity
  8
0
 62
7
100
AcDbSpline
 70
8
 71
3
 72
8
 73
4
 74
0
 40
0
 40
0
 40
0
 40
0
 40
1
 40
1
 40
1
 40
1
 10
16.163827
 20
226.504418
 30
0.0
 10
16.163827
 20
226.504418
 30
0.0
 10
19.147382
 20
223.492261
 30
0.0
 10
21.069157
 20
223.474650
 30
0.0
  0
SPLINE
  5
18e
100
AcDbEntity
  8
0
 62
7
100
AcDbSpline
 70
8
 71
3
 72
8
 73
4
 74
0
 40
0
 40
0
 40
0
 40
0
 40
1
 40
1
 40
1
 40
1
 10
21.069157
 20
223.474650
 30
0.0
 10
23.081523
 20
223.456306
 30
0.0
 10
26.263034
 20
226.552509
 30
0.0
 10
26.263034
 20
226.552509
 30
0.0
  0
SPLINE
  5
18f
100
AcDbEntity
  8
0
 62
7
100
AcDbSpline
 70
8
 71
3
 72
8
 73
4
 74
0
 40
0
 40
0
 40
0
 40
0
 40
1
 40
1
 40
1
 40
1
 10
26.263034
 20
226.552509
 30
0.0
 10
26.263034
 20
226.552509
 30
0.0
 10
22.859340
 20
225.641157
 30
0.0
 10
21.117248
 20
225.638786
 30
0.0
  0
SPLINE
  5
190
100
AcDbEntity
  8
0
 62
7
100
AcDbSpline
 70
8
 71
3
 72
8
 73
4
 74
0
 40
0
 40
0
 40
0
 40
0
 40
1
 40
1
 40
1
 40
1
 10
21.117248
 20
225.638786
 30
0.0
 10
19.441088
 20
225.635964
 30
0.0
 10
16.163827
 20
226.504418
 30
0.0
 10
16.163827
 20
226.504418
 30
0.0
  0
LWPOLYLINE
  5
191
100
AcDbEntity
  8
0
 62
7
100
AcDbPolyline
 90
2
 70
1
 10
27.955434
 20
234.067328
 30
0.0
 10
27.955434
 20
234.067328
 30
0.0
  0
SPLINE
  5
192
100
AcDbEntity
  8
0
 62
7
100
AcDbSpline
 70
8
 71
3
 72
8
 73
4
 74
0
 40
0
 40
0
 40
0
 40
0
 40
1
 40
1
 40
1
 40
1
 10
20.106943
 20
233.286885
 30
0.0
 10
20.106943
 20
233.286885
 30
0.0
 10
21.784068
 20
231.843151
 30
0.0
 10
22.371124
 20
231.015458
 30
0.0
  0
SPLINE
  5
193
100
AcDbEntity
  8
0
 62
7
100
AcDbSpline
 70
8
 71
3
 72
8
 73
4
 74
0
 40
0
 40
0
 40
0
 40
0
 40
1
 40
1
 40
1
 40
1
 10
22.371124
 20
231.015458
 30
0.0
 10
22.958175
 20
230.187766
 30
0.0
 10
23.590302
 20
228.375721
 30
0.0
 10
23.590302
 20
228.375721
 30
0.0
  0
SPLINE
  5
194
100
AcDbEntity
  8
0
 62
7
100
AcDbSpline
 70
8
 71
3
 72
8
 73
4
 74
0
 40
0
 40
0
 40
0
 40
0
 40
1
 40
1
 40
1
 40
1
 10
23.590302
 20
228.375721
 30
0.0
 10
23.590302
 20
228.375721
 30
0.0
 10
22.575622
 20
228.130896
 30
0.0
 10
22.109874
 20
228.252932
 30
0.0
  0
SPLINE
  5
195
100
AcDbEntity
  8
0
 62
7
100
AcDbSpline
 70
8
 71
3
 72
8
 73
4
 74
0
 40
0
 40
0
 40
0
 40
0
 40
1
 40
1
 40
1
 40
1
 10
22.109874
 20
228.252932
 30
0.0
 10
21.666940
 20
228.369013
 30
0.0
 10
21.624398
 20
228.996232
 30
0.0
 10
21.151952
 20
228.989608
 30
0.0
  0
SPLINE
  5
196
100
AcDbEntity
  8
0
 62
7
100
AcDbSpline
 70
8
 71
3
 72
8
 73
4
 74
0
 40
0
 40
0
 40
0
 40
0
 40
1
 40
1
 40
1
 40
1
 10
21.151952
 20
228.989608
 30
0.0
 10
20.657719
 20
228.982609
 30
0.0
 10
20.194025
 20
228.191565
 30
0.0
 10
20.194025
 20
228.191565
 30
0.0
  0
SPLINE
  5
197
100
AcDbEntity
  8
0
 62
7
100
AcDbSpline
 70
8
 71
3
 72
8
 73
4
 74
0
 40
0
 40
0
 40
0
 40
0
 40
1
 40
1
 40
1
 40
1
 10
17.777291
 20
233.967362
 30
0.0
 10
17.777489
 20
233.690292
 30
0.0
 10
17.629787
 20
233.434184
 30
0.0
 10
17.389870
 20
233.295591
 30
0.0
  0
SPLINE
  5
198
100
AcDbEntity
  8
0
 62
7
100
AcDbSpline
 70
8
 71
3
 72
8
 73
4
 74
0
 40
0
 40
0
 40
0
 40
0
 40
1
 40
1
 40
1
 40
1
 10
17.389870
 20
233.295591
 30
0.0
 10
17.149954
 20
233.156999
 30
0.0
 10
16.854307
 20
233.156999
 30
0.0
 10
16.614390
 20
233.295591
 30
0.0
  0
SPLINE
  5
199
100
AcDbEntity
  8
0
 62
7
100
AcDbSpline
 70
8
 71
3
 72
8
 73
4
 74
0
 40
0
 40
0
 40
0
 40
0
 40
1
 40
1
 40
1
 40
1
 10
16.614390
 20
233.295591
 30
0.0
 10
16.374473
 20
233.434184
 30
0.0
 10
16.226771
 20
233.690292
 30
0.0
 10
16.226969
 20
233.967362
 30
0.0
  0
SPLINE
  5
19a
100
AcDbEntity
  8
0
 62
7
100
AcDbSpline
 70
8
 71
3
 72
8
 73
4
 74
0
 40
0
 40
0
 40
0
 40
0
 40
1
 40
1
 40
1
 40
1
 10
16.226969
 20
233.967362
 30
0.0
 10
16.226771
 20
234.244432
 30
0.0
 10
16.374473
 20
234.500540
 30
0.0
 10
16.614390
 20
234.639132
 30
0.0
  0
SPLINE
  5
19b
100
AcDbEntity
  8
0
 62
7
100
AcDbSpline
 70
8
 71
3
 72
8
 73
4
 74
0
 40
0
 40
0
 40
0
 40
0
 40
1
 40
1
 40
1
 40
1
 10
16.614390
 20
234.639132
 30
0.0
 10
16.854307
 20
234.777724
 30
0.0
 10
17.149954
 20
234.777724
 30
0.0
 10
17.389870
 20
234.639132
 30
0.0
  0
SPLINE
  5
19c
100
AcDbEntity
  8
0
 62
7
100
AcDbSpline
 70
8
 71
3
 72
8
 73
4
 74
0
 40
0
 40
0
 40
0
 40
0
 40
1
 40
1
 40
1
 40
1
 10
17.389870
 20
234.639132
 30
0.0
 10
17.629787
 20
234.500540
 30
0.0
 10
17.777489
 20
234.244432
 30
0.0
 10
17.777291
 20
233.967362
 30
0.0
  0
LWPOLYLINE
  5
19d
100
AcDbEntity
  8
0
 62
7
100
AcDbPolyline
 90
2
 70
1
 10
16.163827
 20
226.504418
 30
0.0
 10
16.163827
 20
226.504418
 30
0.0
  0
SPLINE
  5
19e
100
AcDbEntity
  8
0
 62
7
100
AcDbSpline
 70
8
 71
3
 72
8
 73
4
 74
0
 40
0
 40
0
 40
0
 40
0
 40
1
 40
1
 40
1
 40
1
 10
26.766943
 20
233.967353
 30
0.0
 10
26.767258
 20
233.693902
 30
0.0
 10
26.621555
 20
233.441088
 30
0.0
 10
26.384792
 20
233.304272
 30
0.0
  0
SPLINE
  5
19f
100
AcDbEntity
  8
0
 62
7
100
AcDbSpline
 70
8
 71
3
 72
8
 73
4
 74
0
 40
0
 40
0
 40
0
 40
0
 40
1
 40
1
 40
1
 40
1
 10
26.384792
 20
233.304272
 30
0.0
 10
26.148029
 20
233.167455
 30
0.0
 10
25.856233
 20
233.167455
 30
0.0
 10
25.619470
 20
233.304272
 30
0.0
  0
SPLINE
  5
1a0
100
AcDbEntity
  8
0
 62
7
100
AcDbSpline
 70
8
 71
3
 72
8
 73
4
 74
0
 40
0
 40
0
 40
0
 40
0
 40
1
 40
1
 40
1
 40
1
 10
25.619470
 20
233.304272
 30
0.0
 10
25.382707
 20
233.441088
 30
0.0
 10
25.237004
 20
233.693902
 30
0.0
 10
25.237319
 20
233.967353
 30
0.0
  0
SPLINE
  5
1a1
100
AcDbEntity
  8
0
 62
7
100
AcDbSpline
 70
8
 71
3
 72
8
 73
4
 74
0
 40
0
 40
0
 40
0
 40
0
 40
1
 40
1
 40
1
 40
1
 10
25.237319
 20
233.967353
 30
0.0
 10
25.237004
 20
234.240804
 30
0.0
 10
25.382707
 20
234.493618
 30
0.0
 10
25.619470
 20
234.630435
 30
0.0
  0
SPLINE
  5
1a2
100
AcDbEntity
  8
0
 62
7
100
AcDbSpline
 70
8
 71
3
 72
8
 73
4
 74
0
 40
0
 40
0
 40
0
 40
0
 40
1
 40
1
 40
1
 40
1
 10
25.619470
 20
234.630435
 30
0.0
 10
25.856233
 20
234.767251
 30
0.0
 10
26.148029
 20
234.767251
 30
0.0
 10
26.384792
 20
234.630435
 30
0.0
  0
SPLINE
  5
1a3
100
AcDbEntity
  8
0
 62
7
100
AcDbSpline
 70
8
 71
3
 72
8
 73
4
 74
0
 40
0
 40
0
 40
0
 40
0
 40
1
 40
1
 40
1
 40
1
 10
26.384792
 20
234.630435
 30
0.0
 10
26.621555
 20
234.493618
 30
0.0
 10
26.767258
 20
234.240804
 30
0.0
 10
26.766943
 20
233.967353
 30
0.0
  0
LWPOLYLINE
  5
1a4
100
AcDbEntity
  8
0
 62
7
100
AcDbPolyline
 90
2
 70
1
 10
17.777291
 20
233.967362
 30
0.0
 10
17.777291
 20
233.967362
 30
0.0
  0
SPLINE
  5
1a5
100
AcDbEntity
  8
0
 62
1
100
AcDbSpline
 70
8
 71
3
 72
8
 73
4
 74
0
 40
0
 40
0
 40
0
 40
0
 40
1
 40
1
 40
1
 40
1
 10
21.102129
 20
145.250002
 30
0.0
 10
15.831668
 20
145.250002
 30
0.0
 10
10.377752
 20
153.331695
 30
0.0
 10
6.102131
 20
150.250003
 30
0.0
  0
SPLINE
  5
1a6
100
AcDbEntity
  8
0
 62
1
100
AcDbSpline
 70
8
 71
3
 72
8
 73
4
 74
0
 40
0
 40
0
 40
0
 40
0
 40
1
 40
1
 40
1
 40
1
 10
6.102131
 20
150.250003
 30
0.0
 10
-2.010292
 20
144.402901
 30
0.0
 10
5.603994
 20
130.237589
 30
0.0
 10
6.102131
 20
120.250001
 30
0.0
  0
SPLINE
  5
1a7
100
AcDbEntity
  8
0
 62
1
100
AcDbSpline
 70
8
 71
3
 72
8
 73
4
 74
0
 40
0
 40
0
 40
0
 40
0
 40
1
 40
1
 40
1
 40
1
 10
6.102131
 20
120.250001
 30
0.0
 10
6.761241
 20
107.034906
 30
0.0
 10
9.499135
 20
83.497214
 30
0.0
 10
10.620238
 20
74.192150
 30
0.0
  0
SPLINE
  5
1a8
100
AcDbEntity
  8
0
 62
1
100
AcDbSpline
 70
8
 71
3
 72
8
 73
4
 74
0
 40
0
 40
0
 40
0
 40
0
 40
1
 40
1
 40
1
 40
1
 10
10.620238
 20
74.192150
 30
0.0
 10
10.918340
 20
71.717930
 30
0.0
 10
12.353932
 20
70.680724
 30
0.0
 10
11.102129
 20
70.250000
 30
0.0
  0
SPLINE
  5
1a9
100
AcDbEntity
  8
0
 62
1
100
AcDbSpline
 70
8
 71
3
 72
8
 73
4
 74
0
 40
0
 40
0
 40
0
 40
0
 40
1
 40
1
 40
1
 40
1
 10
11.102129
 20
70.250000
 30
0.0
 10
9.994088
 20
69.868740
 30
0.0
 10
10.334615
 20
71.854975
 30
0.0
 10
9.291262
 20
73.263100
 30
0.0
  0
SPLINE
  5
1aa
100
AcDbEntity
  8
0
 62
1
100
AcDbSpline
 70
8
 71
3
 72
8
 73
4
 74
0
 40
0
 40
0
 40
0
 40
0
 40
1
 40
1
 40
1
 40
1
 10
9.291262
 20
73.263100
 30
0.0
 10
8.333845
 20
74.555243
 30
0.0
 10
7.144163
 20
75.681626
 30
0.0
 10
6.102128
 20
75.250001
 30
0.0
  0
SPLINE
  5
1ab
100
AcDbEntity
  8
0
 62
1
100
AcDbSpline
 70
8
 71
3
 72
8
 73
4
 74
0
 40
0
 40
0
 40
0
 40
0
 40
1
 40
1
 40
1
 40
1
 10
6.102128
 20
75.250001
 30
0.0
 10
1.482732
 20
73.336585
 30
0.0
 10
1.482729
 20
62.163413
 30
0.0
 10
6.102131
 20
60.250000
 30
0.0
  0
SPLINE
  5
1ac
100
AcDbEntity
  8
0
 62
1
100
AcDbSpline
 70
8
 71
3
 72
8
 73
4
 74
0
 40
0
 40
0
 40
0
 40
0
 40
1
 40
1
 40
1
 40
1
 10
6.102131
 20
60.250000
 30
0.0
 10
7.397985
 20
59.713241
 30
0.0
 10
8.922174
 20
61.585930
 30
0.0
 10
9.944050
 20
63.190504
 30
0.0
  0
SPLINE
  5
1ad
100
AcDbEntity
  8
0
 62
1
100
AcDbSpline
 70
8
 71
3
 72
8
 73
4
 74
0
 40
0
 40
0
 40
0
 40
0
 40
1
 40
1
 40
1
 40
1
 10
9.944050
 20
63.190504
 30
0.0
 10
10.639375
 20
64.282320
 30
0.0
 10
10.318110
 20
65.324903
 30
0.0
 10
11.102129
 20
65.250001
 30
0.0
  0
SPLINE
  5
1ae
100
AcDbEntity
  8
0
 62
1
100
AcDbSpline
 70
8
 71
3
 72
8
 73
4
 74
0
 40
0
 40
0
 40
0
 40
0
 40
1
 40
1
 40
1
 40
1
 10
11.102129
 20
65.250001
 30
0.0
 10
11.820661
 20
65.181353
 30
0.0
 10
11.786891
 20
63.195714
 30
0.0
 10
11.786891
 20
63.195714
 30
0.0
  0
LWPOLYLINE
  5
1af
100
AcDbEntity
  8
0
 62
7
100
AcDbPolyline
 90
2
 70
1
 10
26.766943
 20
233.967353
 30
0.0
 10
26.766943
 20
233.967353
 30
0.0
  0
SPLINE
  5
1b0
100
AcDbEntity
  8
0
 62
1
100
AcDbSpline
 70
8
 71
3
 72
8
 73
4
 74
0
 40
0
 40
0
 40
0
 40
0
 40
1
 40
1
 40
1
 40
1
 10
15.459714
 20
52.177253
 30
0.0
 10
16.120713
 20
51.032368
 30
0.0
 10
15.755776
 20
50.250003
 30
0.0
 10
15.262565
 20
50.250003
 30
0.0
  0
LWPOLYLINE
  5
1b1
100
AcDbEntity
  8
0
 62
1
100
AcDbPolyline
 90
2
 70
1
 10
11.786891
 20
63.195714
 30
0.0
 10
15.459714
 20
52.177253
 30
0.0
  0
SPLINE
  5
1b2
100
AcDbEntity
  8
0
 62
1
100
AcDbSpline
 70
8
 71
3
 72
8
 73
4
 74
0
 40
0
 40
0
 40
0
 40
0
 40
1
 40
1
 40
1
 40
1
 10
1.102129
 20
50.250003
 30
0.0
 10
1.102129
 20
50.250003
 30
0.0
 10
-0.812477
 20
33.360411
 30
0.0
 10
1.102129
 20
25.250002
 30
0.0
  0
SPLINE
  5
1b3
100
AcDbEntity
  8
0
 62
1
100
AcDbSpline
 70
8
 71
3
 72
8
 73
4
 74
0
 40
0
 40
0
 40
0
 40
0
 40
1
 40
1
 40
1
 40
1
 10
1.102129
 20
25.250002
 30
0.0
 10
1.958369
 20
21.622919
 30
0.0
 10
2.423474
 20
15.846967
 30
0.0
 10
6.102131
 20
15.250002
 30
0.0
  0
SPLINE
  5
1b4
100
AcDbEntity
  8
0
 62
1
100
AcDbSpline
 70
8
 71
3
 72
8
 73
4
 74
0
 40
0
 40
0
 40
0
 40
0
 40
1
 40
1
 40
1
 40
1
 10
6.102131
 20
15.250002
 30
0.0
 10
7.455403
 20
15.030397
 30
0.0
 10
8.926018
 20
16.757882
 30
0.0
 10
9.919624
 20
18.241679
 30
0.0
  0
SPLINE
  5
1b5
100
AcDbEntity
  8
0
 62
1
100
AcDbSpline
 70
8
 71
3
 72
8
 73
4
 74
0
 40
0
 40
0
 40
0
 40
0
 40
1
 40
1
 40
1
 40
1
 10
9.919624
 20
18.241679
 30
0.0
 10
10.634253
 20
19.308869
 30
0.0
 10
10.352601
 20
20.454276
 30
0.0
 10
11.102129
 20
20.250004
 30
0.0
  0
SPLINE
  5
1b6
100
AcDbEntity
  8
0
 62
1
100
AcDbSpline
 70
8
 71
3
 72
8
 73
4
 74
0
 40
0
 40
0
 40
0
 40
0
 40
1
 40
1
 40
1
 40
1
 10
11.102129
 20
20.250004
 30
0.0
 10
14.318164
 20
19.373523
 30
0.0
 10
12.854568
 20
13.085505
 30
0.0
 10
11.102129
 20
10.250004
 30
0.0
  0
SPLINE
  5
1b7
100
AcDbEntity
  8
0
 62
1
100
AcDbSpline
 70
8
 71
3
 72
8
 73
4
 74
0
 40
0
 40
0
 40
0
 40
0
 40
1
 40
1
 40
1
 40
1
 10
11.102129
 20
10.250004
 30
0.0
 10
9.142847
 20
7.079813
 30
0.0
 10
3.061415
 20
8.420191
 30
0.0
 10
1.102129
 20
5.250003
 30
0.0
  0
SPLINE
  5
1b8
100
AcDbEntity
  8
0
 62
1
100
AcDbSpline
 70
8
 71
3
 72
8
 73
4
 74
0
 40
0
 40
0
 40
0
 40
0
 40
1
 40
1
 40
1
 40
1
 10
1.102129
 20
5.250003
 30
0.0
 10
0.225911
 20
3.832251
 30
0.0
 10
1.102129
 20
0.250001
 30
0.0
 10
1.102129
 20
0.250001
 30
0.0
  0
LWPOLYLINE
  5
1b9
100
AcDbEntity
  8
0
 62
1
100
AcDbPolyline
 90
3
 70
1
 10
15.262565
 20
50.250003
 30
0.0
 10
13.264327
 20
50.250003
 30
0.0
 10
1.102129
 20
50.250003
 30
0.0
  0
SPLINE
  5
1ba
100
AcDbEntity
  8
0
 62
1
100
AcDbSpline
 70
8
 71
3
 72
8
 73
4
 74
0
 40
0
 40
0
 40
0
 40
0
 40
1
 40
1
 40
1
 40
1
 10
41.102131
 20
0.250001
 30
0.0
 10
41.102131
 20
0.250001
 30
0.0
 10
41.978349
 20
3.832251
 30
0.0
 10
41.102131
 20
5.250003
 30
0.0
  0
SPLINE
  5
1bb
100
AcDbEntity
  8
0
 62
1
100
AcDbSpline
 70
8
 71
3
 72
8
 73
4
 74
0
 40
0
 40
0
 40
0
 40
0
 40
1
 40
1
 40
1
 40
1
 10
41.102131
 20
5.250003
 30
0.0
 10
39.142846
 20
8.420191
 30
0.0
 10
33.061414
 20
7.079813
 30
0.0
 10
31.102132
 20
10.250004
 30
0.0
  0
SPLINE
  5
1bc
100
AcDbEntity
  8
0
 62
1
100
AcDbSpline
 70
8
 71
3
 72
8
 73
4
 74
0
 40
0
 40
0
 40
0
 40
0
 40
1
 40
1
 40
1
 40
1
 10
31.102132
 20
10.250004
 30
0.0
 10
29.349692
 20
13.085505
 30
0.0
 10
27.885930
 20
19.374130
 30
0.0
 10
31.102132
 20
20.250004
 30
0.0
  0
SPLINE
  5
1bd
100
AcDbEntity
  8
0
 62
1
100
AcDbSpline
 70
8
 71
3
 72
8
 73
4
 74
0
 40
0
 40
0
 40
0
 40
0
 40
1
 40
1
 40
1
 40
1
 10
31.102132
 20
20.250004
 30
0.0
 10
31.846803
 20
20.452800
 30
0.0
 10
31.566311
 20
19.316308
 30
0.0
 10
32.276162
 20
18.254351
 30
0.0
  0
SPLINE
  5
1be
100
AcDbEntity
  8
0
 62
1
100
AcDbSpline
 70
8
 71
3
 72
8
 73
4
 74
0
 40
0
 40
0
 40
0
 40
0
 40
1
 40
1
 40
1
 40
1
 10
32.276162
 20
18.254351
 30
0.0
 10
33.269866
 20
16.767737
 30
0.0
 10
34.745002
 20
15.029770
 30
0.0
 10
36.102130
 20
15.250002
 30
0.0
  0
SPLINE
  5
1bf
100
AcDbEntity
  8
0
 62
1
100
AcDbSpline
 70
8
 71
3
 72
8
 73
4
 74
0
 40
0
 40
0
 40
0
 40
0
 40
1
 40
1
 40
1
 40
1
 10
36.102130
 20
15.250002
 30
0.0
 10
39.780787
 20
15.846967
 30
0.0
 10
40.245892
 20
21.622919
 30
0.0
 10
41.102131
 20
25.250002
 30
0.0
  0
SPLINE
  5
1c0
100
AcDbEntity
  8
0
 62
1
100
AcDbSpline
 70
8
 71
3
 72
8
 73
4
 74
0
 40
0
 40
0
 40
0
 40
0
 40
1
 40
1
 40
1
 40
1
 10
41.102131
 20
25.250002
 30
0.0
 10
43.016738
 20
33.360411
 30
0.0
 10
41.102131
 20
50.250003
 30
0.0
 10
41.102131
 20
50.250003
 30
0.0
  0
LWPOLYLINE
  5
1c1
100
AcDbEntity
  8
0
 62
1
100
AcDbPolyline
 90
2
 70
1
 10
1.102129
 20
0.250001
 30
0.0
 10
41.102131
 20
0.250001
 30
0.0
  0
SPLINE
  5
1c2
100
AcDbEntity
  8
0
 62
1
100
AcDbSpline
 70
8
 71
3
 72
8
 73
4
 74
0
 40
0
 40
0
 40
0
 40
0
 40
1
 40
1
 40
1
 40
1
 10
27.195713
 20
50.250003
 30
0.0
 10
27.195713
 20
50.250003
 30
0.0
 10
26.358062
 20
51.017800
 30
0.0
 10
26.761506
 20
52.228129
 30
0.0
  0
LWPOLYLINE
  5
1c3
100
AcDbEntity
  8
0
 62
1
100
AcDbPolyline
 90
3
 70
1
 10
41.102131
 20
50.250003
 30
0.0
 10
29.250240
 20
50.250003
 30
0.0
 10
27.195713
 20
50.250003
 30
0.0
  0
SPLINE
  5
1c4
100
AcDbEntity
  8
0
 62
1
100
AcDbSpline
 70
8
 71
3
 72
8
 73
4
 74
0
 40
0
 40
0
 40
0
 40
0
 40
1
 40
1
 40
1
 40
1
 10
30.406183
 20
63.162155
 30
0.0
 10
30.406183
 20
63.162155
 30
0.0
 10
30.371862
 20
65.180230
 30
0.0
 10
31.102132
 20
65.250001
 30
0.0
  0
SPLINE
  5
1c5
100
AcDbEntity
  8
0
 62
1
100
AcDbSpline
 70
8
 71
3
 72
8
 73
4
 74
0
 40
0
 40
0
 40
0
 40
0
 40
1
 40
1
 40
1
 40
1
 10
31.102132
 20
65.250001
 30
0.0
 10
31.886278
 20
65.324920
 30
0.0
 10
31.564979
 20
64.282128
 30
0.0
 10
32.260417
 20
63.190180
 30
0.0
  0
SPLINE
  5
1c6
100
AcDbEntity
  8
0
 62
1
100
AcDbSpline
 70
8
 71
3
 72
8
 73
4
 74
0
 40
0
 40
0
 40
0
 40
0
 40
1
 40
1
 40
1
 40
1
 10
32.260417
 20
63.190180
 30
0.0
 10
33.282293
 20
61.585676
 30
0.0
 10
34.806363
 20
59.713278
 30
0.0
 10
36.102130
 20
60.250000
 30
0.0
  0
SPLINE
  5
1c7
100
AcDbEntity
  8
0
 62
1
100
AcDbSpline
 70
8
 71
3
 72
8
 73
4
 74
0
 40
0
 40
0
 40
0
 40
0
 40
1
 40
1
 40
1
 40
1
 10
36.102130
 20
60.250000
 30
0.0
 10
40.721529
 20
62.163410
 30
0.0
 10
40.721526
 20
73.336585
 30
0.0
 10
36.102130
 20
75.250001
 30
0.0
  0
SPLINE
  5
1c8
100
AcDbEntity
  8
0
 62
1
100
AcDbSpline
 70
8
 71
3
 72
8
 73
4
 74
0
 40
0
 40
0
 40
0
 40
0
 40
1
 40
1
 40
1
 40
1
 10
36.102130
 20
75.250001
 30
0.0
 10
34.777878
 20
75.798525
 30
0.0
 10
33.215174
 20
73.830841
 30
0.0
 10
32.193761
 20
72.204425
 30
0.0
  0
SPLINE
  5
1c9
100
AcDbEntity
  8
0
 62
1
100
AcDbSpline
 70
8
 71
3
 72
8
 73
4
 74
0
 40
0
 40
0
 40
0
 40
0
 40
1
 40
1
 40
1
 40
1
 10
32.193761
 20
72.204425
 30
0.0
 10
31.535560
 20
71.156353
 30
0.0
 10
31.811393
 20
70.018106
 30
0.0
 10
31.102132
 20
70.250000
 30
0.0
  0
SPLINE
  5
1ca
100
AcDbEntity
  8
0
 62
1
100
AcDbSpline
 70
8
 71
3
 72
8
 73
4
 74
0
 40
0
 40
0
 40
0
 40
0
 40
1
 40
1
 40
1
 40
1
 10
31.102132
 20
70.250000
 30
0.0
 10
30.479829
 20
70.453462
 30
0.0
 10
31.189841
 20
70.950534
 30
0.0
 10
31.342353
 20
72.199410
 30
0.0
  0
SPLINE
  5
1cb
100
AcDbEntity
  8
0
 62
1
100
AcDbSpline
 70
8
 71
3
 72
8
 73
4
 74
0
 40
0
 40
0
 40
0
 40
0
 40
1
 40
1
 40
1
 40
1
 10
31.342353
 20
72.199410
 30
0.0
 10
32.240895
 20
79.557259
 30
0.0
 10
35.388833
 20
105.948458
 30
0.0
 10
36.102130
 20
120.250001
 30
0.0
  0
SPLINE
  5
1cc
100
AcDbEntity
  8
0
 62
1
100
AcDbSpline
 70
8
 71
3
 72
8
 73
4
 74
0
 40
0
 40
0
 40
0
 40
0
 40
1
 40
1
 40
1
 40
1
 10
36.102130
 20
120.250001
 30
0.0
 10
36.600266
 20
130.237589
 30
0.0
 10
44.214551
 20
144.402901
 30
0.0
 10
36.102130
 20
150.250003
 30
0.0
  0
SPLINE
  5
1cd
100
AcDbEntity
  8
0
 62
1
100
AcDbSpline
 70
8
 71
3
 72
8
 73
4
 74
0
 40
0
 40
0
 40
0
 40
0
 40
1
 40
1
 40
1
 40
1
 10
36.102130
 20
150.250003
 30
0.0
 10
31.826509
 20
153.331695
 30
0.0
 10
26.372592
 20
145.250002
 30
0.0
 10
21.102129
 20
145.250002
 30
0.0
  0
LWPOLYLINE
  5
1ce
100
AcDbEntity
  8
0
 62
1
100
AcDbPolyline
 90
2
 70
1
 10
26.761506
 20
52.228129
 30
0.0
 10
30.406183
 20
63.162155
 30
0.0
  0
LWPOLYLINE
  5
1cf
100
AcDbEntity
  8
0
 62
1
100
AcDbPolyline
 90
2
 70
1
 10
21.102129
 20
145.250002
 30
0.0
 10
21.102129
 20
145.250002
 30
0.0
  0
LWPOLYLINE
  5
1d0
100
AcDbEntity
  8
0
 62
7
100
AcDbPolyline
 90
2
 70
0
 10
1.102129
 20
40.249983
 30
0.0
 10
41.102131
 20
40.249983
 30
0.0
  0
LWPOLYLINE
  5
1d1
100
AcDbEntity
  8
0
 62
7
100
AcDbPolyline
 90
2
 70
0
 10
1.102129
 20
30.250003
 30
0.0
 10
41.102131
 20
30.250003
 30
0.0
  0
SPLINE
  5
1d2
100
AcDbEntity
  8
0
 62
7
100
AcDbSpline
 70
8
 71
3
 72
8
 73
4
 74
0
 40
0
 40
0
 40
0
 40
0
 40
1
 40
1
 40
1
 40
1
 10
18.961847
 20
67.749996
 30
0.0
 10
18.962031
 20
67.264146
 30
0.0
 10
18.512312
 20
66.815156
 30
0.0
 10
17.782138
 20
66.572200
 30
0.0
  0
SPLINE
  5
1d3
100
AcDbEntity
  8
0
 62
7
100
AcDbSpline
 70
8
 71
3
 72
8
 73
4
 74
0
 40
0
 40
0
 40
0
 40
0
 40
1
 40
1
 40
1
 40
1
 10
17.782138
 20
66.572200
 30
0.0
 10
17.051963
 20
66.329244
 30
0.0
 10
16.152298
 20
66.329244
 30
0.0
 10
15.422124
 20
66.572200
 30
0.0
  0
SPLINE
  5
1d4
100
AcDbEntity
  8
0
 62
7
100
AcDbSpline
 70
8
 71
3
 72
8
 73
4
 74
0
 40
0
 40
0
 40
0
 40
0
 40
1
 40
1
 40
1
 40
1
 10
15.422124
 20
66.572200
 30
0.0
 10
14.691950
 20
66.815156
 30
0.0
 10
14.242231
 20
67.264146
 30
0.0
 10
14.242415
 20
67.749996
 30
0.0
  0
SPLINE
  5
1d5
100
AcDbEntity
  8
0
 62
7
100
AcDbSpline
 70
8
 71
3
 72
8
 73
4
 74
0
 40
0
 40
0
 40
0
 40
0
 40
1
 40
1
 40
1
 40
1
 10
14.242415
 20
67.749996
 30
0.0
 10
14.242231
 20
68.235847
 30
0.0
 10
14.691950
 20
68.684836
 30
0.0
 10
15.422124
 20
68.927792
 30
0.0
  0
SPLINE
  5
1d6
100
AcDbEntity
  8
0
 62
7
100
AcDbSpline
 70
8
 71
3
 72
8
 73
4
 74
0
 40
0
 40
0
 40
0
 40
0
 40
1
 40
1
 40
1
 40
1
 10
15.422124
 20
68.927792
 30
0.0
 10
16.152298
 20
69.170748
 30
0.0
 10
17.051963
 20
69.170748
 30
0.0
 10
17.782138
 20
68.927792
 30
0.0
  0
SPLINE
  5
1d7
100
AcDbEntity
  8
0
 62
7
100
AcDbSpline
 70
8
 71
3
 72
8
 73
4
 74
0
 40
0
 40
0
 40
0
 40
0
 40
1
 40
1
 40
1
 40
1
 10
17.782138
 20
68.927792
 30
0.0
 10
18.512312
 20
68.684836
 30
0.0
 10
18.962031
 20
68.235847
 30
0.0
 10
18.961847
 20
67.749996
 30
0.0
  0
LWPOLYLINE
  5
1d8
100
AcDbEntity
  8
0
 62
7
100
AcDbPolyline
 90
2
 70
0
 10
12.233554
 20
20.252369
 30
0.0
 10
30.233553
 20
20.252369
 30
0.0
  0
SPLINE
  5
1d9
100
AcDbEntity
  8
0
 62
7
100
AcDbSpline
 70
8
 71
3
 72
8
 73
4
 74
0
 40
0
 40
0
 40
0
 40
0
 40
1
 40
1
 40
1
 40
1
 10
27.955434
 20
67.749973
 30
0.0
 10
27.955904
 20
67.266304
 30
0.0
 10
27.507470
 20
66.819260
 30
0.0
 10
26.779162
 20
66.577347
 30
0.0
  0
SPLINE
  5
1da
100
AcDbEntity
  8
0
 62
7
100
AcDbSpline
 70
8
 71
3
 72
8
 73
4
 74
0
 40
0
 40
0
 40
0
 40
0
 40
1
 40
1
 40
1
 40
1
 10
26.779162
 20
66.577347
 30
0.0
 10
26.050854
 20
66.335435
 30
0.0
 10
25.153406
 20
66.335435
 30
0.0
 10
24.425098
 20
66.577347
 30
0.0
  0
SPLINE
  5
1db
100
AcDbEntity
  8
0
 62
7
100
AcDbSpline
 70
8
 71
3
 72
8
 73
4
 74
0
 40
0
 40
0
 40
0
 40
0
 40
1
 40
1
 40
1
 40
1
 10
24.425098
 20
66.577347
 30
0.0
 10
23.696790
 20
66.819260
 30
0.0
 10
23.248356
 20
67.266304
 30
0.0
 10
23.248825
 20
67.749973
 30
0.0
  0
SPLINE
  5
1dc
100
AcDbEntity
  8
0
 62
7
100
AcDbSpline
 70
8
 71
3
 72
8
 73
4
 74
0
 40
0
 40
0
 40
0
 40
0
 40
1
 40
1
 40
1
 40
1
 10
23.248825
 20
67.749973
 30
0.0
 10
23.248356
 20
68.233643
 30
0.0
 10
23.696790
 20
68.680687
 30
0.0
 10
24.425098
 20
68.922600
 30
0.0
  0
SPLINE
  5
1dd
100
AcDbEntity
  8
0
 62
7
100
AcDbSpline
 70
8
 71
3
 72
8
 73
4
 74
0
 40
0
 40
0
 40
0
 40
0
 40
1
 40
1
 40
1
 40
1
 10
24.425098
 20
68.922600
 30
0.0
 10
25.153406
 20
69.164512
 30
0.0
 10
26.050854
 20
69.164512
 30
0.0
 10
26.779162
 20
68.922600
 30
0.0
  0
SPLINE
  5
1de
100
AcDbEntity
  8
0
 62
7
100
AcDbSpline
 70
8
 71
3
 72
8
 73
4
 74
0
 40
0
 40
0
 40
0
 40
0
 40
1
 40
1
 40
1
 40
1
 10
26.779162
 20
68.922600
 30
0.0
 10
27.507470
 20
68.680687
 30
0.0
 10
27.955904
 20
68.233643
 30
0.0
 10
27.955434
 20
67.749973
 30
0.0
  0
LWPOLYLINE
  5
1df
100
AcDbEntity
  8
0
 62
7
100
AcDbPolyline
 90
2
 70
1
 10
18.961847
 20
67.749996
 30
0.0
 10
18.961847
 20
67.749996
 30
0.0
  0
SPLINE
  5
1e0
100
AcDbEntity
  8
0
 62
7
100
AcDbSpline
 70
8
 71
3
 72
8
 73
4
 74
0
 40
0
 40
0
 40
0
 40
0
 40
1
 40
1
 40
1
 40
1
 10
16.163827
 20
60.187064
 30
0.0
 10
16.163827
 20
60.187064
 30
0.0
 10
19.147382
 20
57.174906
 30
0.0
 10
21.069157
 20
57.157296
 30
0.0
  0
SPLINE
  5
1e1
100
AcDbEntity
  8
0
 62
7
100
AcDbSpline
 70
8
 71
3
 72
8
 73
4
 74
0
 40
0
 40
0
 40
0
 40
0
 40
1
 40
1
 40
1
 40
1
 10
21.069157
 20
57.157296
 30
0.0
 10
23.081523
 20
57.138951
 30
0.0
 10
26.263034
 20
60.235155
 30
0.0
 10
26.263034
 20
60.235155
 30
0.0
  0
SPLINE
  5
1e2
100
AcDbEntity
  8
0
 62
7
100
AcDbSpline
 70
8
 71
3
 72
8
 73
4
 74
0
 40
0
 40
0
 40
0
 40
0
 40
1
 40
1
 40
1
 40
1
 10
26.263034
 20
60.235155
 30
0.0
 10
26.263034
 20
60.235155
 30
0.0
 10
22.859340
 20
59.323803
 30
0.0
 10
21.117248
 20
59.321432
 30
0.0
  0
SPLINE
  5
1e3
100
AcDbEntity
  8
0
 62
7
100
AcDbSpline
 70
8
 71
3
 72
8
 73
4
 74
0
 40
0
 40
0
 40
0
 40
0
 40
1
 40
1
 40
1
 40
1
 10
21.117248
 20
59.321432
 30
0.0
 10
19.441088
 20
59.318610
 30
0.0
 10
16.163827
 20
60.187064
 30
0.0
 10
16.163827
 20
60.187064
 30
0.0
  0
LWPOLYLINE
  5
1e4
100
AcDbEntity
  8
0
 62
7
100
AcDbPolyline
 90
2
 70
1
 10
27.955434
 20
67.749973
 30
0.0
 10
27.955434
 20
67.749973
 30
0.0
  0
SPLINE
  5
1e5
100
AcDbEntity
  8
0
 62
7
100
AcDbSpline
 70
8
 71
3
 72
8
 73
4
 74
0
 40
0
 40
0
 40
0
 40
0
 40
1
 40
1
 40
1
 40
1
 10
20.106943
 20
66.969530
 30
0.0
 10
20.106943
 20
66.969530
 30
0.0
 10
21.784068
 20
65.525797
 30
0.0
 10
22.371124
 20
64.698104
 30
0.0
  0
SPLINE
  5
1e6
100
AcDbEntity
  8
0
 62
7
100
AcDbSpline
 70
8
 71
3
 72
8
 73
4
 74
0
 40
0
 40
0
 40
0
 40
0
 40
1
 40
1
 40
1
 40
1
 10
22.371124
 20
64.698104
 30
0.0
 10
22.958175
 20
63.870411
 30
0.0
 10
23.590302
 20
62.058367
 30
0.0
 10
23.590302
 20
62.058367
 30
0.0
  0
SPLINE
  5
1e7
100
AcDbEntity
  8
0
 62
7
100
AcDbSpline
 70
8
 71
3
 72
8
 73
4
 74
0
 40
0
 40
0
 40
0
 40
0
 40
1
 40
1
 40
1
 40
1
 10
23.590302
 20
62.058367
 30
0.0
 10
23.590302
 20
62.058367
 30
0.0
 10
22.575622
 20
61.813542
 30
0.0
 10
22.109874
 20
61.935578
 30
0.0
  0
SPLINE
  5
1e8
100
AcDbEntity
  8
0
 62
7
100
AcDbSpline
 70
8
 71
3
 72
8
 73
4
 74
0
 40
0
 40
0
 40
0
 40
0
 40
1
 40
1
 40
1
 40
1
 10
22.109874
 20
61.935578
 30
0.0
 10
21.666940
 20
62.051658
 30
0.0
 10
21.624398
 20
62.678878
 30
0.0
 10
21.151952
 20
62.672254
 30
0.0
  0
SPLINE
  5
1e9
100
AcDbEntity
  8
0
 62
7
100
AcDbSpline
 70
8
 71
3
 72
8
 73
4
 74
0
 40
0
 40
0
 40
0
 40
0
 40
1
 40
1
 40
1
 40
1
 10
21.151952
 20
62.672254
 30
0.0
 10
20.657719
 20
62.665255
 30
0.0
 10
20.194025
 20
61.874211
 30
0.0
 10
20.194025
 20
61.874211
 30
0.0
  0
SPLINE
  5
1ea
100
AcDbEntity
  8
0
 62
7
100
AcDbSpline
 70
8
 71
3
 72
8
 73
4
 74
0
 40
0
 40
0
 40
0
 40
0
 40
1
 40
1
 40
1
 40
1
 10
17.777291
 20
67.650008
 30
0.0
 10
17.777489
 20
67.372937
 30
0.0
 10
17.629787
 20
67.116829
 30
0.0
 10
17.389870
 20
66.978237
 30
0.0
  0
SPLINE
  5
1eb
100
AcDbEntity
  8
0
 62
7
100
AcDbSpline
 70
8
 71
3
 72
8
 73
4
 74
0
 40
0
 40
0
 40
0
 40
0
 40
1
 40
1
 40
1
 40
1
 10
17.389870
 20
66.978237
 30
0.0
 10
17.149954
 20
66.839645
 30
0.0
 10
16.854307
 20
66.839645
 30
0.0
 10
16.614390
 20
66.978237
 30
0.0
  0
SPLINE
  5
1ec
100
AcDbEntity
  8
0
 62
7
100
AcDbSpline
 70
8
 71
3
 72
8
 73
4
 74
0
 40
0
 40
0
 40
0
 40
0
 40
1
 40
1
 40
1
 40
1
 10
16.614390
 20
66.978237
 30
0.0
 10
16.374473
 20
67.116829
 30
0.0
 10
16.226771
 20
67.372937
 30
0.0
 10
16.226969
 20
67.650008
 30
0.0
  0
SPLINE
  5
1ed
100
AcDbEntity
  8
0
 62
7
100
AcDbSpline
 70
8
 71
3
 72
8
 73
4
 74
0
 40
0
 40
0
 40
0
 40
0
 40
1
 40
1
 40
1
 40
1
 10
16.226969
 20
67.650008
 30
0.0
 10
16.226771
 20
67.927078
 30
0.0
 10
16.374473
 20
68.183186
 30
0.0
 10
16.614390
 20
68.321778
 30
0.0
  0
SPLINE
  5
1ee
100
AcDbEntity
  8
0
 62
7
100
AcDbSpline
 70
8
 71
3
 72
8
 73
4
 74
0
 40
0
 40
0
 40
0
 40
0
 40
1
 40
1
 40
1
 40
1
 10
16.614390
 20
68.321778
 30
0.0
 10
16.854307
 20
68.460370
 30
0.0
 10
17.149954
 20
68.460370
 30
0.0
 10
17.389870
 20
68.321778
 30
0.0
  0
SPLINE
  5
1ef
100
AcDbEntity
  8
0
 62
7
100
AcDbSpline
 70
8
 71
3
 72
8
 73
4
 74
0
 40
0
 40
0
 40
0
 40
0
 40
1
 40
1
 40
1
 40
1
 10
17.389870
 20
68.321778
 30
0.0
 10
17.629787
 20
68.183186
 30
0.0
 10
17.777489
 20
67.927078
 30
0.0
 10
17.777291
 20
67.650008
 30
0.0
  0
LWPOLYLINE
  5
1f0
100
AcDbEntity
  8
0
 62
7
100
AcDbPolyline
 90
2
 70
1
 10
16.163827
 20
60.187064
 30
0.0
 10
16.163827
 20
60.187064
 30
0.0
  0
SPLINE
  5
1f1
100
AcDbEntity
  8
0
 62
7
100
AcDbSpline
 70
8
 71
3
 72
8
 73
4
 74
0
 40
0
 40
0
 40
0
 40
0
 40
1
 40
1
 40
1
 40
1
 10
26.766943
 20
67.649999
 30
0.0
 10
26.767258
 20
67.376548
 30
0.0
 10
26.621555
 20
67.123734
 30
0.0
 10
26.384792
 20
66.986918
 30
0.0
  0
SPLINE
  5
1f2
100
AcDbEntity
  8
0
 62
7
100
AcDbSpline
 70
8
 71
3
 72
8
 73
4
 74
0
 40
0
 40
0
 40
0
 40
0
 40
1
 40
1
 40
1
 40
1
 10
26.384792
 20
66.986918
 30
0.0
 10
26.148029
 20
66.850101
 30
0.0
 10
25.856233
 20
66.850101
 30
0.0
 10
25.619470
 20
66.986918
 30
0.0
  0
SPLINE
  5
1f3
100
AcDbEntity
  8
0
 62
7
100
AcDbSpline
 70
8
 71
3
 72
8
 73
4
 74
0
 40
0
 40
0
 40
0
 40
0
 40
1
 40
1
 40
1
 40
1
 10
25.619470
 20
66.986918
 30
0.0
 10
25.382707
 20
67.123734
 30
0.0
 10
25.237004
 20
67.376548
 30
0.0
 10
25.237319
 20
67.649999
 30
0.0
  0
SPLINE
  5
1f4
100
AcDbEntity
  8
0
 62
7
100
AcDbSpline
 70
8
 71
3
 72
8
 73
4
 74
0
 40
0
 40
0
 40
0
 40
0
 40
1
 40
1
 40
1
 40
1
 10
25.237319
 20
67.649999
 30
0.0
 10
25.237004
 20
67.923450
 30
0.0
 10
25.382707
 20
68.176264
 30
0.0
 10
25.619470
 20
68.313080
 30
0.0
  0
SPLINE
  5
1f5
100
AcDbEntity
  8
0
 62
7
100
AcDbSpline
 70
8
 71
3
 72
8
 73
4
 74
0
 40
0
 40
0
 40
0
 40
0
 40
1
 40
1
 40
1
 40
1
 10
25.619470
 20
68.313080
 30
0.0
 10
25.856233
 20
68.449897
 30
0.0
 10
26.148029
 20
68.449897
 30
0.0
 10
26.384792
 20
68.313080
 30
0.0
  0
SPLINE
  5
1f6
100
AcDbEntity
  8
0
 62
7
100
AcDbSpline
 70
8
 71
3
 72
8
 73
4
 74
0
 40
0
 40
0
 40
0
 40
0
 40
1
 40
1
 40
1
 40
1
 10
26.384792
 20
68.313080
 30
0.0
 10
26.621555
 20
68.176264
 30
0.0
 10
26.767258
 20
67.923450
 30
0.0
 10
26.766943
 20
67.649999
 30
0.0
  0
LWPOLYLINE
  5
1f7
100
AcDbEntity
  8
0
 62
7
100
AcDbPolyline
 90
2
 70
1
 10
17.777291
 20
67.650008
 30
0.0
 10
17.777291
 20
67.650008
 30
0.0
  0
SPLINE
  5
1f8
100
AcDbEntity
  8
0
 62
1
100
AcDbSpline
 70
8
 71
3
 72
8
 73
4
 74
0
 40
0
 40
0
 40
0
 40
0
 40
1
 40
1
 40
1
 40
1
 10
67.526815
 20
311.567356
 30
0.0
 10
62.256355
 20
311.567356
 30
0.0
 10
56.802439
 20
319.649049
 30
0.0
 10
52.526817
 20
316.567357
 30
0.0
  0
SPLINE
  5
1f9
100
AcDbEntity
  8
0
 62
1
100
AcDbSpline
 70
8
 71
3
 72
8
 73
4
 74
0
 40
0
 40
0
 40
0
 40
0
 40
1
 40
1
 40
1
 40
1
 10
52.526817
 20
316.567357
 30
0.0
 10
44.414395
 20
310.720255
 30
0.0
 10
52.028681
 20
296.554943
 30
0.0
 10
52.526817
 20
286.567355
 30
0.0
  0
SPLINE
  5
1fa
100
AcDbEntity
  8
0
 62
1
100
AcDbSpline
 70
8
 71
3
 72
8
 73
4
 74
0
 40
0
 40
0
 40
0
 40
0
 40
1
 40
1
 40
1
 40
1
 10
52.526817
 20
286.567355
 30
0.0
 10
53.185927
 20
273.352260
 30
0.0
 10
55.923822
 20
249.814569
 30
0.0
 10
57.044924
 20
240.509504
 30
0.0
  0
SPLINE
  5
1fb
100
AcDbEntity
  8
0
 62
1
100
AcDbSpline
 70
8
 71
3
 72
8
 73
4
 74
0
 40
0
 40
0
 40
0
 40
0
 40
1
 40
1
 40
1
 40
1
 10
57.044924
 20
240.509504
 30
0.0
 10
57.343027
 20
238.035285
 30
0.0
 10
58.778618
 20
236.998079
 30
0.0
 10
57.526816
 20
236.567354
 30
0.0
  0
SPLINE
  5
1fc
100
AcDbEntity
  8
0
 62
1
100
AcDbSpline
 70
8
 71
3
 72
8
 73
4
 74
0
 40
0
 40
0
 40
0
 40
0
 40
1
 40
1
 40
1
 40
1
 10
57.526816
 20
236.567354
 30
0.0
 10
56.418774
 20
236.186094
 30
0.0
 10
56.759301
 20
238.172329
 30
0.0
 10
55.715948
 20
239.580454
 30
0.0
  0
SPLINE
  5
1fd
100
AcDbEntity
  8
0
 62
1
100
AcDbSpline
 70
8
 71
3
 72
8
 73
4
 74
0
 40
0
 40
0
 40
0
 40
0
 40
1
 40
1
 40
1
 40
1
 10
55.715948
 20
239.580454
 30
0.0
 10
54.758532
 20
240.872597
 30
0.0
 10
53.568849
 20
241.998980
 30
0.0
 10
52.526814
 20
241.567355
 30
0.0
  0
SPLINE
  5
1fe
100
AcDbEntity
  8
0
 62
1
100
AcDbSpline
 70
8
 71
3
 72
8
 73
4
 74
0
 40
0
 40
0
 40
0
 40
0
 40
1
 40
1
 40
1
 40
1
 10
52.526814
 20
241.567355
 30
0.0
 10
47.907418
 20
239.653939
 30
0.0
 10
47.907415
 20
228.480767
 30
0.0
 10
52.526817
 20
226.567354
 30
0.0
  0
SPLINE
  5
1ff
100
AcDbEntity
  8
0
 62
1
100
AcDbSpline
 70
8
 71
3
 72
8
 73
4
 74
0
 40
0
 40
0
 40
0
 40
0
 40
1
 40
1
 40
1
 40
1
 10
52.526817
 20
226.567354
 30
0.0
 10
53.822671
 20
226.030596
 30
0.0
 10
55.346861
 20
227.903284
 30
0.0
 10
56.368736
 20
229.507858
 30
0.0
  0
SPLINE
  5
200
100
AcDbEntity
  8
0
 62
1
100
AcDbSpline
 70
8
 71
3
 72
8
 73
4
 74
0
 40
0
 40
0
 40
0
 40
0
 40
1
 40
1
 40
1
 40
1
 10
56.368736
 20
229.507858
 30
0.0
 10
57.064061
 20
230.599675
 30
0.0
 10
56.742797
 20
231.642257
 30
0.0
 10
57.526816
 20
231.567355
 30
0.0
  0
SPLINE
  5
201
100
AcDbEntity
  8
0
 62
1
100
AcDbSpline
 70
8
 71
3
 72
8
 73
4
 74
0
 40
0
 40
0
 40
0
 40
0
 40
1
 40
1
 40
1
 40
1
 10
57.526816
 20
231.567355
 30
0.0
 10
58.245348
 20
231.498708
 30
0.0
 10
58.211577
 20
229.513068
 30
0.0
 10
58.211577
 20
229.513068
 30
0.0
  0
LWPOLYLINE
  5
202
100
AcDbEntity
  8
0
 62
7
100
AcDbPolyline
 90
2
 70
1
 10
26.766943
 20
67.649999
 30
0.0
 10
26.766943
 20
67.649999
 30
0.0
  0
SPLINE
  5
203
100
AcDbEntity
  8
0
 62
1
100
AcDbSpline
 70
8
 71
3
 72
8
 73
4
 74
0
 40
0
 40
0
 40
0
 40
0
 40
1
 40
1
 40
1
 40
1
 10
61.884400
 20
218.494607
 30
0.0
 10
62.545400
 20
217.349722
 30
0.0
 10
62.180462
 20
216.567357
 30
0.0
 10
61.687251
 20
216.567357
 30
0.0
  0
LWPOLYLINE
  5
204
100
AcDbEntity
  8
0
 62
1
100
AcDbPolyline
 90
2
 70
1
 10
58.211577
 20
229.513068
 30
0.0
 10
61.884400
 20
218.494607
 30
0.0
  0
SPLINE
  5
205
100
AcDbEntity
  8
0
 62
1
100
AcDbSpline
 70
8
 71
3
 72
8
 73
4
 74
0
 40
0
 40
0
 40
0
 40
0
 40
1
 40
1
 40
1
 40
1
 10
47.526816
 20
216.567357
 30
0.0
 10
47.526816
 20
216.567357
 30
0.0
 10
45.612209
 20
199.677765
 30
0.0
 10
47.526816
 20
191.567356
 30
0.0
  0
SPLINE
  5
206
100
AcDbEntity
  8
0
 62
1
100
AcDbSpline
 70
8
 71
3
 72
8
 73
4
 74
0
 40
0
 40
0
 40
0
 40
0
 40
1
 40
1
 40
1
 40
1
 10
47.526816
 20
191.567356
 30
0.0
 10
48.383055
 20
187.940273
 30
0.0
 10
48.848160
 20
182.164321
 30
0.0
 10
52.526817
 20
181.567357
 30
0.0
  0
SPLINE
  5
207
100
AcDbEntity
  8
0
 62
1
100
AcDbSpline
 70
8
 71
3
 72
8
 73
4
 74
0
 40
0
 40
0
 40
0
 40
0
 40
1
 40
1
 40
1
 40
1
 10
52.526817
 20
181.567357
 30
0.0
 10
53.880090
 20
181.347751
 30
0.0
 10
55.350704
 20
183.075236
 30
0.0
 10
56.344310
 20
184.559033
 30
0.0
  0
SPLINE
  5
208
100
AcDbEntity
  8
0
 62
1
100
AcDbSpline
 70
8
 71
3
 72
8
 73
4
 74
0
 40
0
 40
0
 40
0
 40
0
 40
1
 40
1
 40
1
 40
1
 10
56.344310
 20
184.559033
 30
0.0
 10
57.058939
 20
185.626223
 30
0.0
 10
56.777287
 20
186.771630
 30
0.0
 10
57.526816
 20
186.567358
 30
0.0
  0
SPLINE
  5
209
100
AcDbEntity
  8
0
 62
1
100
AcDbSpline
 70
8
 71
3
 72
8
 73
4
 74
0
 40
0
 40
0
 40
0
 40
0
 40
1
 40
1
 40
1
 40
1
 10
57.526816
 20
186.567358
 30
0.0
 10
60.742851
 20
185.690877
 30
0.0
 10
59.279255
 20
179.402859
 30
0.0
 10
57.526816
 20
176.567358
 30
0.0
  0
SPLINE
  5
20a
100
AcDbEntity
  8
0
 62
1
100
AcDbSpline
 70
8
 71
3
 72
8
 73
4
 74
0
 40
0
 40
0
 40
0
 40
0
 40
1
 40
1
 40
1
 40
1
 10
57.526816
 20
176.567358
 30
0.0
 10
55.567533
 20
173.397167
 30
0.0
 10
49.486101
 20
174.737545
 30
0.0
 10
47.526816
 20
171.567357
 30
0.0
  0
SPLINE
  5
20b
100
AcDbEntity
  8
0
 62
1
100
AcDbSpline
 70
8
 71
3
 72
8
 73
4
 74
0
 40
0
 40
0
 40
0
 40
0
 40
1
 40
1
 40
1
 40
1
 10
47.526816
 20
171.567357
 30
0.0
 10
46.650598
 20
170.149605
 30
0.0
 10
47.526816
 20
166.567355
 30
0.0
 10
47.526816
 20
166.567355
 30
0.0
  0
LWPOLYLINE
  5
20c
100
AcDbEntity
  8
0
 62
1
100
AcDbPolyline
 90
3
 70
1
 10
61.687251
 20
216.567357
 30
0.0
 10
59.689013
 20
216.567357
 30
0.0
 10
47.526816
 20
216.567357
 30
0.0
  0
SPLINE
  5
20d
100
AcDbEntity
  8
0
 62
1
100
AcDbSpline
 70
8
 71
3
 72
8
 73
4
 74
0
 40
0
 40
0
 40
0
 40
0
 40
1
 40
1
 40
1
 40
1
 10
87.526818
 20
166.567355
 30
0.0
 10
87.526818
 20
166.567355
 30
0.0
 10
88.403036
 20
170.149605
 30
0.0
 10
87.526818
 20
171.567357
 30
0.0
  0
SPLINE
  5
20e
100
AcDbEntity
  8
0
 62
1
100
AcDbSpline
 70
8
 71
3
 72
8
 73
4
 74
0
 40
0
 40
0
 40
0
 40
0
 40
1
 40
1
 40
1
 40
1
 10
87.526818
 20
171.567357
 30
0.0
 10
85.567532
 20
174.737545
 30
0.0
 10
79.486100
 20
173.397167
 30
0.0
 10
77.526818
 20
176.567358
 30
0.0
  0
SPLINE
  5
20f
100
AcDbEntity
  8
0
 62
1
100
AcDbSpline
 70
8
 71
3
 72
8
 73
4
 74
0
 40
0
 40
0
 40
0
 40
0
 40
1
 40
1
 40
1
 40
1
 10
77.526818
 20
176.567358
 30
0.0
 10
75.774379
 20
179.402859
 30
0.0
 10
74.310616
 20
185.691484
 30
0.0
 10
77.526818
 20
186.567358
 30
0.0
  0
SPLINE
  5
210
100
AcDbEntity
  8
0
 62
1
100
AcDbSpline
 70
8
 71
3
 72
8
 73
4
 74
0
 40
0
 40
0
 40
0
 40
0
 40
1
 40
1
 40
1
 40
1
 10
77.526818
 20
186.567358
 30
0.0
 10
78.271489
 20
186.770154
 30
0.0
 10
77.990997
 20
185.633662
 30
0.0
 10
78.700848
 20
184.571705
 30
0.0
  0
SPLINE
  5
211
100
AcDbEntity
  8
0
 62
1
100
AcDbSpline
 70
8
 71
3
 72
8
 73
4
 74
0
 40
0
 40
0
 40
0
 40
0
 40
1
 40
1
 40
1
 40
1
 10
78.700848
 20
184.571705
 30
0.0
 10
79.694553
 20
183.085091
 30
0.0
 10
81.169689
 20
181.347124
 30
0.0
 10
82.526816
 20
181.567357
 30
0.0
  0
SPLINE
  5
212
100
AcDbEntity
  8
0
 62
1
100
AcDbSpline
 70
8
 71
3
 72
8
 73
4
 74
0
 40
0
 40
0
 40
0
 40
0
 40
1
 40
1
 40
1
 40
1
 10
82.526816
 20
181.567357
 30
0.0
 10
86.205473
 20
182.164321
 30
0.0
 10
86.670578
 20
187.940273
 30
0.0
 10
87.526818
 20
191.567356
 30
0.0
  0
SPLINE
  5
213
100
AcDbEntity
  8
0
 62
1
100
AcDbSpline
 70
8
 71
3
 72
8
 73
4
 74
0
 40
0
 40
0
 40
0
 40
0
 40
1
 40
1
 40
1
 40
1
 10
87.526818
 20
191.567356
 30
0.0
 10
89.441424
 20
199.677765
 30
0.0
 10
87.526818
 20
216.567357
 30
0.0
 10
87.526818
 20
216.567357
 30
0.0
  0
LWPOLYLINE
  5
214
100
AcDbEntity
  8
0
 62
1
100
AcDbPolyline
 90
2
 70
1
 10
47.526816
 20
166.567355
 30
0.0
 10
87.526818
 20
166.567355
 30
0.0
  0
SPLINE
  5
215
100
AcDbEntity
  8
0
 62
1
100
AcDbSpline
 70
8
 71
3
 72
8
 73
4
 74
0
 40
0
 40
0
 40
0
 40
0
 40
1
 40
1
 40
1
 40
1
 10
73.620399
 20
216.567357
 30
0.0
 10
73.620399
 20
216.567357
 30
0.0
 10
72.782749
 20
217.335154
 30
0.0
 10
73.186192
 20
218.545484
 30
0.0
  0
LWPOLYLINE
  5
216
100
AcDbEntity
  8
0
 62
1
100
AcDbPolyline
 90
3
 70
1
 10
87.526818
 20
216.567357
 30
0.0
 10
75.674926
 20
216.567357
 30
0.0
 10
73.620399
 20
216.567357
 30
0.0
  0
SPLINE
  5
217
100
AcDbEntity
  8
0
 62
1
100
AcDbSpline
 70
8
 71
3
 72
8
 73
4
 74
0
 40
0
 40
0
 40
0
 40
0
 40
1
 40
1
 40
1
 40
1
 10
76.830869
 20
229.479509
 30
0.0
 10
76.830869
 20
229.479509
 30
0.0
 10
76.796548
 20
231.497584
 30
0.0
 10
77.526818
 20
231.567355
 30
0.0
  0
SPLINE
  5
218
100
AcDbEntity
  8
0
 62
1
100
AcDbSpline
 70
8
 71
3
 72
8
 73
4
 74
0
 40
0
 40
0
 40
0
 40
0
 40
1
 40
1
 40
1
 40
1
 10
77.526818
 20
231.567355
 30
0.0
 10
78.310964
 20
231.642274
 30
0.0
 10
77.989665
 20
230.599483
 30
0.0
 10
78.685103
 20
229.507534
 30
0.0
  0
SPLINE
  5
219
100
AcDbEntity
  8
0
 62
1
100
AcDbSpline
 70
8
 71
3
 72
8
 73
4
 74
0
 40
0
 40
0
 40
0
 40
0
 40
1
 40
1
 40
1
 40
1
 10
78.685103
 20
229.507534
 30
0.0
 10
79.706979
 20
227.903030
 30
0.0
 10
81.231049
 20
226.030632
 30
0.0
 10
82.526816
 20
226.567354
 30
0.0
  0
SPLINE
  5
21a
100
AcDbEntity
  8
0
 62
1
100
AcDbSpline
 70
8
 71
3
 72
8
 73
4
 74
0
 40
0
 40
0
 40
0
 40
0
 40
1
 40
1
 40
1
 40
1
 10
82.526816
 20
226.567354
 30
0.0
 10
87.146216
 20
228.480764
 30
0.0
 10
87.146213
 20
239.653939
 30
0.0
 10
82.526816
 20
241.567355
 30
0.0
  0
SPLINE
  5
21b
100
AcDbEntity
  8
0
 62
1
100
AcDbSpline
 70
8
 71
3
 72
8
 73
4
 74
0
 40
0
 40
0
 40
0
 40
0
 40
1
 40
1
 40
1
 40
1
 10
82.526816
 20
241.567355
 30
0.0
 10
81.202565
 20
242.115879
 30
0.0
 10
79.639861
 20
240.148195
 30
0.0
 10
78.618448
 20
238.521779
 30
0.0
  0
SPLINE
  5
21c
100
AcDbEntity
  8
0
 62
1
100
AcDbSpline
 70
8
 71
3
 72
8
 73
4
 74
0
 40
0
 40
0
 40
0
 40
0
 40
1
 40
1
 40
1
 40
1
 10
78.618448
 20
238.521779
 30
0.0
 10
77.960246
 20
237.473708
 30
0.0
 10
78.236079
 20
236.335460
 30
0.0
 10
77.526818
 20
236.567354
 30
0.0
  0
SPLINE
  5
21d
100
AcDbEntity
  8
0
 62
1
100
AcDbSpline
 70
8
 71
3
 72
8
 73
4
 74
0
 40
0
 40
0
 40
0
 40
0
 40
1
 40
1
 40
1
 40
1
 10
77.526818
 20
236.567354
 30
0.0
 10
76.904515
 20
236.770816
 30
0.0
 10
77.614527
 20
237.267889
 30
0.0
 10
77.767040
 20
238.516764
 30
0.0
  0
SPLINE
  5
21e
100
AcDbEntity
  8
0
 62
1
100
AcDbSpline
 70
8
 71
3
 72
8
 73
4
 74
0
 40
0
 40
0
 40
0
 40
0
 40
1
 40
1
 40
1
 40
1
 10
77.767040
 20
238.516764
 30
0.0
 10
78.665582
 20
245.874614
 30
0.0
 10
81.813519
 20
272.265812
 30
0.0
 10
82.526816
 20
286.567355
 30
0.0
  0
SPLINE
  5
21f
100
AcDbEntity
  8
0
 62
1
100
AcDbSpline
 70
8
 71
3
 72
8
 73
4
 74
0
 40
0
 40
0
 40
0
 40
0
 40
1
 40
1
 40
1
 40
1
 10
82.526816
 20
286.567355
 30
0.0
 10
83.024953
 20
296.554943
 30
0.0
 10
90.639238
 20
310.720255
 30
0.0
 10
82.526816
 20
316.567357
 30
0.0
  0
SPLINE
  5
220
100
AcDbEntity
  8
0
 62
1
100
AcDbSpline
 70
8
 71
3
 72
8
 73
4
 74
0
 40
0
 40
0
 40
0
 40
0
 40
1
 40
1
 40
1
 40
1
 10
82.526816
 20
316.567357
 30
0.0
 10
78.251195
 20
319.649049
 30
0.0
 10
72.797279
 20
311.567356
 30
0.0
 10
67.526815
 20
311.567356
 30
0.0
  0
LWPOLYLINE
  5
221
100
AcDbEntity
  8
0
 62
1
100
AcDbPolyline
 90
2
 70
1
 10
73.186192
 20
218.545484
 30
0.0
 10
76.830869
 20
229.479509
 30
0.0
  0
LWPOLYLINE
  5
222
100
AcDbEntity
  8
0
 62
1
100
AcDbPolyline
 90
2
 70
1
 10
67.526815
 20
311.567356
 30
0.0
 10
67.526815
 20
311.567356
 30
0.0
  0
LWPOLYLINE
  5
223
100
AcDbEntity
  8
0
 62
7
100
AcDbPolyline
 90
2
 70
0
 10
47.526816
 20
206.567338
 30
0.0
 10
87.526818
 20
206.567338
 30
0.0
  0
LWPOLYLINE
  5
224
100
AcDbEntity
  8
0
 62
7
100
AcDbPolyline
 90
2
 70
0
 10
47.526816
 20
196.567358
 30
0.0
 10
87.526818
 20
196.567358
 30
0.0
  0
SPLINE
  5
225
100
AcDbEntity
  8
0
 62
7
100
AcDbSpline
 70
8
 71
3
 72
8
 73
4
 74
0
 40
0
 40
0
 40
0
 40
0
 40
1
 40
1
 40
1
 40
1
 10
65.386533
 20
234.067350
 30
0.0
 10
65.386717
 20
233.581500
 30
0.0
 10
64.936998
 20
233.132510
 30
0.0
 10
64.206824
 20
232.889554
 30
0.0
  0
SPLINE
  5
226
100
AcDbEntity
  8
0
 62
7
100
AcDbSpline
 70
8
 71
3
 72
8
 73
4
 74
0
 40
0
 40
0
 40
0
 40
0
 40
1
 40
1
 40
1
 40
1
 10
64.206824
 20
232.889554
 30
0.0
 10
63.476650
 20
232.646598
 30
0.0
 10
62.576985
 20
232.646598
 30
0.0
 10
61.846810
 20
232.889554
 30
0.0
  0
SPLINE
  5
227
100
AcDbEntity
  8
0
 62
7
100
AcDbSpline
 70
8
 71
3
 72
8
 73
4
 74
0
 40
0
 40
0
 40
0
 40
0
 40
1
 40
1
 40
1
 40
1
 10
61.846810
 20
232.889554
 30
0.0
 10
61.116636
 20
233.132510
 30
0.0
 10
60.666917
 20
233.581500
 30
0.0
 10
60.667101
 20
234.067350
 30
0.0
  0
SPLINE
  5
228
100
AcDbEntity
  8
0
 62
7
100
AcDbSpline
 70
8
 71
3
 72
8
 73
4
 74
0
 40
0
 40
0
 40
0
 40
0
 40
1
 40
1
 40
1
 40
1
 10
60.667101
 20
234.067350
 30
0.0
 10
60.666917
 20
234.553201
 30
0.0
 10
61.116636
 20
235.002191
 30
0.0
 10
61.846810
 20
235.245147
 30
0.0
  0
SPLINE
  5
229
100
AcDbEntity
  8
0
 62
7
100
AcDbSpline
 70
8
 71
3
 72
8
 73
4
 74
0
 40
0
 40
0
 40
0
 40
0
 40
1
 40
1
 40
1
 40
1
 10
61.846810
 20
235.245147
 30
0.0
 10
62.576985
 20
235.488102
 30
0.0
 10
63.476650
 20
235.488102
 30
0.0
 10
64.206824
 20
235.245147
 30
0.0
  0
SPLINE
  5
22a
100
AcDbEntity
  8
0
 62
7
100
AcDbSpline
 70
8
 71
3
 72
8
 73
4
 74
0
 40
0
 40
0
 40
0
 40
0
 40
1
 40
1
 40
1
 40
1
 10
64.206824
 20
235.245147
 30
0.0
 10
64.936998
 20
235.002191
 30
0.0
 10
65.386717
 20
234.553201
 30
0.0
 10
65.386533
 20
234.067350
 30
0.0
  0
LWPOLYLINE
  5
22b
100
AcDbEntity
  8
0
 62
7
100
AcDbPolyline
 90
2
 70
0
 10
58.658240
 20
186.569723
 30
0.0
 10
76.658239
 20
186.569723
 30
0.0
  0
SPLINE
  5
22c
100
AcDbEntity
  8
0
 62
7
100
AcDbSpline
 70
8
 71
3
 72
8
 73
4
 74
0
 40
0
 40
0
 40
0
 40
0
 40
1
 40
1
 40
1
 40
1
 10
74.380121
 20
234.067328
 30
0.0
 10
74.380590
 20
233.583658
 30
0.0
 10
73.932156
 20
233.136614
 30
0.0
 10
73.203848
 20
232.894701
 30
0.0
  0
SPLINE
  5
22d
100
AcDbEntity
  8
0
 62
7
100
AcDbSpline
 70
8
 71
3
 72
8
 73
4
 74
0
 40
0
 40
0
 40
0
 40
0
 40
1
 40
1
 40
1
 40
1
 10
73.203848
 20
232.894701
 30
0.0
 10
72.475540
 20
232.652789
 30
0.0
 10
71.578092
 20
232.652789
 30
0.0
 10
70.849784
 20
232.894701
 30
0.0
  0
SPLINE
  5
22e
100
AcDbEntity
  8
0
 62
7
100
AcDbSpline
 70
8
 71
3
 72
8
 73
4
 74
0
 40
0
 40
0
 40
0
 40
0
 40
1
 40
1
 40
1
 40
1
 10
70.849784
 20
232.894701
 30
0.0
 10
70.121476
 20
233.136614
 30
0.0
 10
69.673042
 20
233.583658
 30
0.0
 10
69.673512
 20
234.067328
 30
0.0
  0
SPLINE
  5
22f
100
AcDbEntity
  8
0
 62
7
100
AcDbSpline
 70
8
 71
3
 72
8
 73
4
 74
0
 40
0
 40
0
 40
0
 40
0
 40
1
 40
1
 40
1
 40
1
 10
69.673512
 20
234.067328
 30
0.0
 10
69.673042
 20
234.550997
 30
0.0
 10
70.121476
 20
234.998041
 30
0.0
 10
70.849784
 20
235.239954
 30
0.0
  0
SPLINE
  5
230
100
AcDbEntity
  8
0
 62
7
100
AcDbSpline
 70
8
 71
3
 72
8
 73
4
 74
0
 40
0
 40
0
 40
0
 40
0
 40
1
 40
1
 40
1
 40
1
 10
70.849784
 20
235.239954
 30
0.0
 10
71.578092
 20
235.481867
 30
0.0
 10
72.475540
 20
235.481867
 30
0.0
 10
73.203848
 20
235.239954
 30
0.0
  0
SPLINE
  5
231
100
AcDbEntity
  8
0
 62
7
100
AcDbSpline
 70
8
 71
3
 72
8
 73
4
 74
0
 40
0
 40
0
 40
0
 40
0
 40
1
 40
1
 40
1
 40
1
 10
73.203848
 20
235.239954
 30
0.0
 10
73.932156
 20
234.998041
 30
0.0
 10
74.380590
 20
234.550997
 30
0.0
 10
74.380121
 20
234.067328
 30
0.0
  0
LWPOLYLINE
  5
232
100
AcDbEntity
  8
0
 62
7
100
AcDbPolyline
 90
2
 70
1
 10
65.386533
 20
234.067350
 30
0.0
 10
65.386533
 20
234.067350
 30
0.0
  0
SPLINE
  5
233
100
AcDbEntity
  8
0
 62
7
100
AcDbSpline
 70
8
 71
3
 72
8
 73
4
 74
0
 40
0
 40
0
 40
0
 40
0
 40
1
 40
1
 40
1
 40
1
 10
62.588513
 20
226.504418
 30
0.0
 10
62.588513
 20
226.504418
 30
0.0
 10
65.572068
 20
223.492261
 30
0.0
 10
67.493843
 20
223.474650
 30
0.0
  0
SPLINE
  5
234
100
AcDbEntity
  8
0
 62
7
100
AcDbSpline
 70
8
 71
3
 72
8
 73
4
 74
0
 40
0
 40
0
 40
0
 40
0
 40
1
 40
1
 40
1
 40
1
 10
67.493843
 20
223.474650
 30
0.0
 10
69.506209
 20
223.456306
 30
0.0
 10
72.687720
 20
226.552509
 30
0.0
 10
72.687720
 20
226.552509
 30
0.0
  0
SPLINE
  5
235
100
AcDbEntity
  8
0
 62
7
100
AcDbSpline
 70
8
 71
3
 72
8
 73
4
 74
0
 40
0
 40
0
 40
0
 40
0
 40
1
 40
1
 40
1
 40
1
 10
72.687720
 20
226.552509
 30
0.0
 10
72.687720
 20
226.552509
 30
0.0
 10
69.284027
 20
225.641157
 30
0.0
 10
67.541934
 20
225.638786
 30
0.0
  0
SPLINE
  5
236
100
AcDbEntity
  8
0
 62
7
100
AcDbSpline
 70
8
 71
3
 72
8
 73
4
 74
0
 40
0
 40
0
 40
0
 40
0
 40
1
 40
1
 40
1
 40
1
 10
67.541934
 20
225.638786
 30
0.0
 10
65.865774
 20
225.635964
 30
0.0
 10
62.588513
 20
226.504418
 30
0.0
 10
62.588513
 20
226.504418
 30
0.0
  0
LWPOLYLINE
  5
237
100
AcDbEntity
  8
0
 62
7
100
AcDbPolyline
 90
2
 70
1
 10
74.380121
 20
234.067328
 30
0.0
 10
74.380121
 20
234.067328
 30
0.0
  0
SPLINE
  5
238
100
AcDbEntity
  8
0
 62
7
100
AcDbSpline
 70
8
 71
3
 72
8
 73
4
 74
0
 40
0
 40
0
 40
0
 40
0
 40
1
 40
1
 40
1
 40
1
 10
66.531629
 20
233.286885
 30
0.0
 10
66.531629
 20
233.286885
 30
0.0
 10
68.208754
 20
231.843151
 30
0.0
 10
68.795811
 20
231.015458
 30
0.0
  0
SPLINE
  5
239
100
AcDbEntity
  8
0
 62
7
100
AcDbSpline
 70
8
 71
3
 72
8
 73
4
 74
0
 40
0
 40
0
 40
0
 40
0
 40
1
 40
1
 40
1
 40
1
 10
68.795811
 20
231.015458
 30
0.0
 10
69.382861
 20
230.187766
 30
0.0
 10
70.014988
 20
228.375721
 30
0.0
 10
70.014988
 20
228.375721
 30
0.0
  0
SPLINE
  5
23a
100
AcDbEntity
  8
0
 62
7
100
AcDbSpline
 70
8
 71
3
 72
8
 73
4
 74
0
 40
0
 40
0
 40
0
 40
0
 40
1
 40
1
 40
1
 40
1
 10
70.014988
 20
228.375721
 30
0.0
 10
70.014988
 20
228.375721
 30
0.0
 10
69.000309
 20
228.130896
 30
0.0
 10
68.534560
 20
228.252932
 30
0.0
  0
SPLINE
  5
23b
100
AcDbEntity
  8
0
 62
7
100
AcDbSpline
 70
8
 71
3
 72
8
 73
4
 74
0
 40
0
 40
0
 40
0
 40
0
 40
1
 40
1
 40
1
 40
1
 10
68.534560
 20
228.252932
 30
0.0
 10
68.091627
 20
228.369013
 30
0.0
 10
68.049084
 20
228.996232
 30
0.0
 10
67.576639
 20
228.989608
 30
0.0
  0
SPLINE
  5
23c
100
AcDbEntity
  8
0
 62
7
100
AcDbSpline
 70
8
 71
3
 72
8
 73
4
 74
0
 40
0
 40
0
 40
0
 40
0
 40
1
 40
1
 40
1
 40
1
 10
67.576639
 20
228.989608
 30
0.0
 10
67.082406
 20
228.982609
 30
0.0
 10
66.618712
 20
228.191565
 30
0.0
 10
66.618712
 20
228.191565
 30
0.0
  0
SPLINE
  5
23d
100
AcDbEntity
  8
0
 62
7
100
AcDbSpline
 70
8
 71
3
 72
8
 73
4
 74
0
 40
0
 40
0
 40
0
 40
0
 40
1
 40
1
 40
1
 40
1
 10
64.201977
 20
233.967362
 30
0.0
 10
64.202175
 20
233.690292
 30
0.0
 10
64.054474
 20
233.434184
 30
0.0
 10
63.814557
 20
233.295591
 30
0.0
  0
SPLINE
  5
23e
100
AcDbEntity
  8
0
 62
7
100
AcDbSpline
 70
8
 71
3
 72
8
 73
4
 74
0
 40
0
 40
0
 40
0
 40
0
 40
1
 40
1
 40
1
 40
1
 10
63.814557
 20
233.295591
 30
0.0
 10
63.574640
 20
233.156999
 30
0.0
 10
63.278993
 20
233.156999
 30
0.0
 10
63.039076
 20
233.295591
 30
0.0
  0
SPLINE
  5
23f
100
AcDbEntity
  8
0
 62
7
100
AcDbSpline
 70
8
 71
3
 72
8
 73
4
 74
0
 40
0
 40
0
 40
0
 40
0
 40
1
 40
1
 40
1
 40
1
 10
63.039076
 20
233.295591
 30
0.0
 10
62.799159
 20
233.434184
 30
0.0
 10
62.651458
 20
233.690292
 30
0.0
 10
62.651656
 20
233.967362
 30
0.0
  0
SPLINE
  5
240
100
AcDbEntity
  8
0
 62
7
100
AcDbSpline
 70
8
 71
3
 72
8
 73
4
 74
0
 40
0
 40
0
 40
0
 40
0
 40
1
 40
1
 40
1
 40
1
 10
62.651656
 20
233.967362
 30
0.0
 10
62.651458
 20
234.244432
 30
0.0
 10
62.799159
 20
234.500540
 30
0.0
 10
63.039076
 20
234.639132
 30
0.0
  0
SPLINE
  5
241
100
AcDbEntity
  8
0
 62
7
100
AcDbSpline
 70
8
 71
3
 72
8
 73
4
 74
0
 40
0
 40
0
 40
0
 40
0
 40
1
 40
1
 40
1
 40
1
 10
63.039076
 20
234.639132
 30
0.0
 10
63.278993
 20
234.777724
 30
0.0
 10
63.574640
 20
234.777724
 30
0.0
 10
63.814557
 20
234.639132
 30
0.0
  0
SPLINE
  5
242
100
AcDbEntity
  8
0
 62
7
100
AcDbSpline
 70
8
 71
3
 72
8
 73
4
 74
0
 40
0
 40
0
 40
0
 40
0
 40
1
 40
1
 40
1
 40
1
 10
63.814557
 20
234.639132
 30
0.0
 10
64.054474
 20
234.500540
 30
0.0
 10
64.202175
 20
234.244432
 30
0.0
 10
64.201977
 20
233.967362
 30
0.0
  0
LWPOLYLINE
  5
243
100
AcDbEntity
  8
0
 62
7
100
AcDbPolyline
 90
2
 70
1
 10
62.588513
 20
226.504418
 30
0.0
 10
62.588513
 20
226.504418
 30
0.0
  0
SPLINE
  5
244
100
AcDbEntity
  8
0
 62
7
100
AcDbSpline
 70
8
 71
3
 72
8
 73
4
 74
0
 40
0
 40
0
 40
0
 40
0
 40
1
 40
1
 40
1
 40
1
 10
73.191629
 20
233.967353
 30
0.0
 10
73.191944
 20
233.693902
 30
0.0
 10
73.046241
 20
233.441088
 30
0.0
 10
72.809478
 20
233.304272
 30
0.0
  0
SPLINE
  5
245
100
AcDbEntity
  8
0
 62
7
100
AcDbSpline
 70
8
 71
3
 72
8
 73
4
 74
0
 40
0
 40
0
 40
0
 40
0
 40
1
 40
1
 40
1
 40
1
 10
72.809478
 20
233.304272
 30
0.0
 10
72.572715
 20
233.167455
 30
0.0
 10
72.280920
 20
233.167455
 30
0.0
 10
72.044157
 20
233.304272
 30
0.0
  0
SPLINE
  5
246
100
AcDbEntity
  8
0
 62
7
100
AcDbSpline
 70
8
 71
3
 72
8
 73
4
 74
0
 40
0
 40
0
 40
0
 40
0
 40
1
 40
1
 40
1
 40
1
 10
72.044157
 20
233.304272
 30
0.0
 10
71.807394
 20
233.441088
 30
0.0
 10
71.661690
 20
233.693902
 30
0.0
 10
71.662006
 20
233.967353
 30
0.0
  0
SPLINE
  5
247
100
AcDbEntity
  8
0
 62
7
100
AcDbSpline
 70
8
 71
3
 72
8
 73
4
 74
0
 40
0
 40
0
 40
0
 40
0
 40
1
 40
1
 40
1
 40
1
 10
71.662006
 20
233.967353
 30
0.0
 10
71.661690
 20
234.240804
 30
0.0
 10
71.807394
 20
234.493618
 30
0.0
 10
72.044157
 20
234.630435
 30
0.0
  0
SPLINE
  5
248
100
AcDbEntity
  8
0
 62
7
100
AcDbSpline
 70
8
 71
3
 72
8
 73
4
 74
0
 40
0
 40
0
 40
0
 40
0
 40
1
 40
1
 40
1
 40
1
 10
72.044157
 20
234.630435
 30
0.0
 10
72.280920
 20
234.767251
 30
0.0
 10
72.572715
 20
234.767251
 30
0.0
 10
72.809478
 20
234.630435
 30
0.0
  0
SPLINE
  5
249
100
AcDbEntity
  8
0
 62
7
100
AcDbSpline
 70
8
 71
3
 72
8
 73
4
 74
0
 40
0
 40
0
 40
0
 40
0
 40
1
 40
1
 40
1
 40
1
 10
72.809478
 20
234.630435
 30
0.0
 10
73.046241
 20
234.493618
 30
0.0
 10
73.191944
 20
234.240804
 30
0.0
 10
73.191629
 20
233.967353
 30
0.0
  0
LWPOLYLINE
  5
24a
100
AcDbEntity
  8
0
 62
7
100
AcDbPolyline
 90
2
 70
1
 10
64.201977
 20
233.967362
 30
0.0
 10
64.201977
 20
233.967362
 30
0.0
  0
SPLINE
  5
24b
100
AcDbEntity
  8
0
 62
1
100
AcDbSpline
 70
8
 71
3
 72
8
 73
4
 74
0
 40
0
 40
0
 40
0
 40
0
 40
1
 40
1
 40
1
 40
1
 10
67.526815
 20
145.250002
 30
0.0
 10
62.256355
 20
145.250002
 30
0.0
 10
56.802439
 20
153.331695
 30
0.0
 10
52.526817
 20
150.250003
 30
0.0
  0
SPLINE
  5
24c
100
AcDbEntity
  8
0
 62
1
100
AcDbSpline
 70
8
 71
3
 72
8
 73
4
 74
0
 40
0
 40
0
 40
0
 40
0
 40
1
 40
1
 40
1
 40
1
 10
52.526817
 20
150.250003
 30
0.0
 10
44.414395
 20
144.402901
 30
0.0
 10
52.028681
 20
130.237589
 30
0.0
 10
52.526817
 20
120.250001
 30
0.0
  0
SPLINE
  5
24d
100
AcDbEntity
  8
0
 62
1
100
AcDbSpline
 70
8
 71
3
 72
8
 73
4
 74
0
 40
0
 40
0
 40
0
 40
0
 40
1
 40
1
 40
1
 40
1
 10
52.526817
 20
120.250001
 30
0.0
 10
53.185927
 20
107.034906
 30
0.0
 10
55.923822
 20
83.497214
 30
0.0
 10
57.044924
 20
74.192150
 30
0.0
  0
SPLINE
  5
24e
100
AcDbEntity
  8
0
 62
1
100
AcDbSpline
 70
8
 71
3
 72
8
 73
4
 74
0
 40
0
 40
0
 40
0
 40
0
 40
1
 40
1
 40
1
 40
1
 10
57.044924
 20
74.192150
 30
0.0
 10
57.343027
 20
71.717930
 30
0.0
 10
58.778618
 20
70.680724
 30
0.0
 10
57.526816
 20
70.250000
 30
0.0
  0
SPLINE
  5
24f
100
AcDbEntity
  8
0
 62
1
100
AcDbSpline
 70
8
 71
3
 72
8
 73
4
 74
0
 40
0
 40
0
 40
0
 40
0
 40
1
 40
1
 40
1
 40
1
 10
57.526816
 20
70.250000
 30
0.0
 10
56.418774
 20
69.868740
 30
0.0
 10
56.759301
 20
71.854975
 30
0.0
 10
55.715948
 20
73.263100
 30
0.0
  0
SPLINE
  5
250
100
AcDbEntity
  8
0
 62
1
100
AcDbSpline
 70
8
 71
3
 72
8
 73
4
 74
0
 40
0
 40
0
 40
0
 40
0
 40
1
 40
1
 40
1
 40
1
 10
55.715948
 20
73.263100
 30
0.0
 10
54.758532
 20
74.555243
 30
0.0
 10
53.568849
 20
75.681626
 30
0.0
 10
52.526814
 20
75.250001
 30
0.0
  0
SPLINE
  5
251
100
AcDbEntity
  8
0
 62
1
100
AcDbSpline
 70
8
 71
3
 72
8
 73
4
 74
0
 40
0
 40
0
 40
0
 40
0
 40
1
 40
1
 40
1
 40
1
 10
52.526814
 20
75.250001
 30
0.0
 10
47.907418
 20
73.336585
 30
0.0
 10
47.907415
 20
62.163413
 30
0.0
 10
52.526817
 20
60.250000
 30
0.0
  0
SPLINE
  5
252
100
AcDbEntity
  8
0
 62
1
100
AcDbSpline
 70
8
 71
3
 72
8
 73
4
 74
0
 40
0
 40
0
 40
0
 40
0
 40
1
 40
1
 40
1
 40
1
 10
52.526817
 20
60.250000
 30
0.0
 10
53.822671
 20
59.713241
 30
0.0
 10
55.346861
 20
61.585930
 30
0.0
 10
56.368736
 20
63.190504
 30
0.0
  0
SPLINE
  5
253
100
AcDbEntity
  8
0
 62
1
100
AcDbSpline
 70
8
 71
3
 72
8
 73
4
 74
0
 40
0
 40
0
 40
0
 40
0
 40
1
 40
1
 40
1
 40
1
 10
56.368736
 20
63.190504
 30
0.0
 10
57.064061
 20
64.282320
 30
0.0
 10
56.742797
 20
65.324903
 30
0.0
 10
57.526816
 20
65.250001
 30
0.0
  0
SPLINE
  5
254
100
AcDbEntity
  8
0
 62
1
100
AcDbSpline
 70
8
 71
3
 72
8
 73
4
 74
0
 40
0
 40
0
 40
0
 40
0
 40
1
 40
1
 40
1
 40
1
 10
57.526816
 20
65.250001
 30
0.0
 10
58.245348
 20
65.181353
 30
0.0
 10
58.211577
 20
63.195714
 30
0.0
 10
58.211577
 20
63.195714
 30
0.0
  0
LWPOLYLINE
  5
255
100
AcDbEntity
  8
0
 62
7
100
AcDbPolyline
 90
2
 70
1
 10
73.191629
 20
233.967353
 30
0.0
 10
73.191629
 20
233.967353
 30
0.0
  0
SPLINE
  5
256
100
AcDbEntity
  8
0
 62
1
100
AcDbSpline
 70
8
 71
3
 72
8
 73
4
 74
0
 40
0
 40
0
 40
0
 40
0
 40
1
 40
1
 40
1
 40
1
 10
61.884400
 20
52.177253
 30
0.0
 10
62.545400
 20
51.032368
 30
0.0
 10
62.180462
 20
50.250003
 30
0.0
 10
61.687251
 20
50.250003
 30
0.0
  0
LWPOLYLINE
  5
257
100
AcDbEntity
  8
0
 62
1
100
AcDbPolyline
 90
2
 70
1
 10
58.211577
 20
63.195714
 30
0.0
 10
61.884400
 20
52.177253
 30
0.0
  0
SPLINE
  5
258
100
AcDbEntity
  8
0
 62
1
100
AcDbSpline
 70
8
 71
3
 72
8
 73
4
 74
0
 40
0
 40
0
 40
0
 40
0
 40
1
 40
1
 40
1
 40
1
 10
47.526816
 20
50.250003
 30
0.0
 10
47.526816
 20
50.250003
 30
0.0
 10
45.612209
 20
33.360411
 30
0.0
 10
47.526816
 20
25.250002
 30
0.0
  0
SPLINE
  5
259
100
AcDbEntity
  8
0
 62
1
100
AcDbSpline
 70
8
 71
3
 72
8
 73
4
 74
0
 40
0
 40
0
 40
0
 40
0
 40
1
 40
1
 40
1
 40
1
 10
47.526816
 20
25.250002
 30
0.0
 10
48.383055
 20
21.622919
 30
0.0
 10
48.848160
 20
15.846967
 30
0.0
 10
52.526817
 20
15.250002
 30
0.0
  0
SPLINE
  5
25a
100
AcDbEntity
  8
0
 62
1
100
AcDbSpline
 70
8
 71
3
 72
8
 73
4
 74
0
 40
0
 40
0
 40
0
 40
0
 40
1
 40
1
 40
1
 40
1
 10
52.526817
 20
15.250002
 30
0.0
 10
53.880090
 20
15.030397
 30
0.0
 10
55.350704
 20
16.757882
 30
0.0
 10
56.344310
 20
18.241679
 30
0.0
  0
SPLINE
  5
25b
100
AcDbEntity
  8
0
 62
1
100
AcDbSpline
 70
8
 71
3
 72
8
 73
4
 74
0
 40
0
 40
0
 40
0
 40
0
 40
1
 40
1
 40
1
 40
1
 10
56.344310
 20
18.241679
 30
0.0
 10
57.058939
 20
19.308869
 30
0.0
 10
56.777287
 20
20.454276
 30
0.0
 10
57.526816
 20
20.250004
 30
0.0
  0
SPLINE
  5
25c
100
AcDbEntity
  8
0
 62
1
100
AcDbSpline
 70
8
 71
3
 72
8
 73
4
 74
0
 40
0
 40
0
 40
0
 40
0
 40
1
 40
1
 40
1
 40
1
 10
57.526816
 20
20.250004
 30
0.0
 10
60.742851
 20
19.373523
 30
0.0
 10
59.279255
 20
13.085505
 30
0.0
 10
57.526816
 20
10.250004
 30
0.0
  0
SPLINE
  5
25d
100
AcDbEntity
  8
0
 62
1
100
AcDbSpline
 70
8
 71
3
 72
8
 73
4
 74
0
 40
0
 40
0
 40
0
 40
0
 40
1
 40
1
 40
1
 40
1
 10
57.526816
 20
10.250004
 30
0.0
 10
55.567533
 20
7.079813
 30
0.0
 10
49.486101
 20
8.420191
 30
0.0
 10
47.526816
 20
5.250003
 30
0.0
  0
SPLINE
  5
25e
100
AcDbEntity
  8
0
 62
1
100
AcDbSpline
 70
8
 71
3
 72
8
 73
4
 74
0
 40
0
 40
0
 40
0
 40
0
 40
1
 40
1
 40
1
 40
1
 10
47.526816
 20
5.250003
 30
0.0
 10
46.650598
 20
3.832251
 30
0.0
 10
47.526816
 20
0.250001
 30
0.0
 10
47.526816
 20
0.250001
 30
0.0
  0
LWPOLYLINE
  5
25f
100
AcDbEntity
  8
0
 62
1
100
AcDbPolyline
 90
3
 70
1
 10
61.687251
 20
50.250003
 30
0.0
 10
59.689013
 20
50.250003
 30
0.0
 10
47.526816
 20
50.250003
 30
0.0
  0
SPLINE
  5
260
100
AcDbEntity
  8
0
 62
1
100
AcDbSpline
 70
8
 71
3
 72
8
 73
4
 74
0
 40
0
 40
0
 40
0
 40
0
 40
1
 40
1
 40
1
 40
1
 10
87.526818
 20
0.250001
 30
0.0
 10
87.526818
 20
0.250001
 30
0.0
 10
88.403036
 20
3.832251
 30
0.0
 10
87.526818
 20
5.250003
 30
0.0
  0
SPLINE
  5
261
100
AcDbEntity
  8
0
 62
1
100
AcDbSpline
 70
8
 71
3
 72
8
 73
4
 74
0
 40
0
 40
0
 40
0
 40
0
 40
1
 40
1
 40
1
 40
1
 10
87.526818
 20
5.250003
 30
0.0
 10
85.567532
 20
8.420191
 30
0.0
 10
79.486100
 20
7.079813
 30
0.0
 10
77.526818
 20
10.250004
 30
0.0
  0
SPLINE
  5
262
100
AcDbEntity
  8
0
 62
1
100
AcDbSpline
 70
8
 71
3
 72
8
 73
4
 74
0
 40
0
 40
0
 40
0
 40
0
 40
1
 40
1
 40
1
 40
1
 10
77.526818
 20
10.250004
 30
0.0
 10
75.774379
 20
13.085505
 30
0.0
 10
74.310616
 20
19.374130
 30
0.0
 10
77.526818
 20
20.250004
 30
0.0
  0
SPLINE
  5
263
100
AcDbEntity
  8
0
 62
1
100
AcDbSpline
 70
8
 71
3
 72
8
 73
4
 74
0
 40
0
 40
0
 40
0
 40
0
 40
1
 40
1
 40
1
 40
1
 10
77.526818
 20
20.250004
 30
0.0
 10
78.271489
 20
20.452800
 30
0.0
 10
77.990997
 20
19.316308
 30
0.0
 10
78.700848
 20
18.254351
 30
0.0
  0
SPLINE
  5
264
100
AcDbEntity
  8
0
 62
1
100
AcDbSpline
 70
8
 71
3
 72
8
 73
4
 74
0
 40
0
 40
0
 40
0
 40
0
 40
1
 40
1
 40
1
 40
1
 10
78.700848
 20
18.254351
 30
0.0
 10
79.694553
 20
16.767737
 30
0.0
 10
81.169689
 20
15.029770
 30
0.0
 10
82.526816
 20
15.250002
 30
0.0
  0
SPLINE
  5
265
100
AcDbEntity
  8
0
 62
1
100
AcDbSpline
 70
8
 71
3
 72
8
 73
4
 74
0
 40
0
 40
0
 40
0
 40
0
 40
1
 40
1
 40
1
 40
1
 10
82.526816
 20
15.250002
 30
0.0
 10
86.205473
 20
15.846967
 30
0.0
 10
86.670578
 20
21.622919
 30
0.0
 10
87.526818
 20
25.250002
 30
0.0
  0
SPLINE
  5
266
100
AcDbEntity
  8
0
 62
1
100
AcDbSpline
 70
8
 71
3
 72
8
 73
4
 74
0
 40
0
 40
0
 40
0
 40
0
 40
1
 40
1
 40
1
 40
1
 10
87.526818
 20
25.250002
 30
0.0
 10
89.441424
 20
33.360411
 30
0.0
 10
87.526818
 20
50.250003
 30
0.0
 10
87.526818
 20
50.250003
 30
0.0
  0
LWPOLYLINE
  5
267
100
AcDbEntity
  8
0
 62
1
100
AcDbPolyline
 90
2
 70
1
 10
47.526816
 20
0.250001
 30
0.0
 10
87.526818
 20
0.250001
 30
0.0
  0
SPLINE
  5
268
100
AcDbEntity
  8
0
 62
1
100
AcDbSpline
 70
8
 71
3
 72
8
 73
4
 74
0
 40
0
 40
0
 40
0
 40
0
 40
1
 40
1
 40
1
 40
1
 10
73.620399
 20
50.250003
 30
0.0
 10
73.620399
 20
50.250003
 30
0.0
 10
72.782749
 20
51.017800
 30
0.0
 10
73.186192
 20
52.228129
 30
0.0
  0
LWPOLYLINE
  5
269
100
AcDbEntity
  8
0
 62
1
100
AcDbPolyline
 90
3
 70
1
 10
87.526818
 20
50.250003
 30
0.0
 10
75.674926
 20
50.250003
 30
0.0
 10
73.620399
 20
50.250003
 30
0.0
  0
SPLINE
  5
26a
100
AcDbEntity
  8
0
 62
1
100
AcDbSpline
 70
8
 71
3
 72
8
 73
4
 74
0
 40
0
 40
0
 40
0
 40
0
 40
1
 40
1
 40
1
 40
1
 10
76.830869
 20
63.162155
 30
0.0
 10
76.830869
 20
63.162155
 30
0.0
 10
76.796548
 20
65.180230
 30
0.0
 10
77.526818
 20
65.250001
 30
0.0
  0
SPLINE
  5
26b
100
AcDbEntity
  8
0
 62
1
100
AcDbSpline
 70
8
 71
3
 72
8
 73
4
 74
0
 40
0
 40
0
 40
0
 40
0
 40
1
 40
1
 40
1
 40
1
 10
77.526818
 20
65.250001
 30
0.0
 10
78.310964
 20
65.324920
 30
0.0
 10
77.989665
 20
64.282128
 30
0.0
 10
78.685103
 20
63.190180
 30
0.0
  0
SPLINE
  5
26c
100
AcDbEntity
  8
0
 62
1
100
AcDbSpline
 70
8
 71
3
 72
8
 73
4
 74
0
 40
0
 40
0
 40
0
 40
0
 40
1
 40
1
 40
1
 40
1
 10
78.685103
 20
63.190180
 30
0.0
 10
79.706979
 20
61.585676
 30
0.0
 10
81.231049
 20
59.713278
 30
0.0
 10
82.526816
 20
60.250000
 30
0.0
  0
SPLINE
  5
26d
100
AcDbEntity
  8
0
 62
1
100
AcDbSpline
 70
8
 71
3
 72
8
 73
4
 74
0
 40
0
 40
0
 40
0
 40
0
 40
1
 40
1
 40
1
 40
1
 10
82.526816
 20
60.250000
 30
0.0
 10
87.146216
 20
62.163410
 30
0.0
 10
87.146213
 20
73.336585
 30
0.0
 10
82.526816
 20
75.250001
 30
0.0
  0
SPLINE
  5
26e
100
AcDbEntity
  8
0
 62
1
100
AcDbSpline
 70
8
 71
3
 72
8
 73
4
 74
0
 40
0
 40
0
 40
0
 40
0
 40
1
 40
1
 40
1
 40
1
 10
82.526816
 20
75.250001
 30
0.0
 10
81.202565
 20
75.798525
 30
0.0
 10
79.639861
 20
73.830841
 30
0.0
 10
78.618448
 20
72.204425
 30
0.0
  0
SPLINE
  5
26f
100
AcDbEntity
  8
0
 62
1
100
AcDbSpline
 70
8
 71
3
 72
8
 73
4
 74
0
 40
0
 40
0
 40
0
 40
0
 40
1
 40
1
 40
1
 40
1
 10
78.618448
 20
72.204425
 30
0.0
 10
77.960246
 20
71.156353
 30
0.0
 10
78.236079
 20
70.018106
 30
0.0
 10
77.526818
 20
70.250000
 30
0.0
  0
SPLINE
  5
270
100
AcDbEntity
  8
0
 62
1
100
AcDbSpline
 70
8
 71
3
 72
8
 73
4
 74
0
 40
0
 40
0
 40
0
 40
0
 40
1
 40
1
 40
1
 40
1
 10
77.526818
 20
70.250000
 30
0.0
 10
76.904515
 20
70.453462
 30
0.0
 10
77.614527
 20
70.950534
 30
0.0
 10
77.767040
 20
72.199410
 30
0.0
  0
SPLINE
  5
271
100
AcDbEntity
  8
0
 62
1
100
AcDbSpline
 70
8
 71
3
 72
8
 73
4
 74
0
 40
0
 40
0
 40
0
 40
0
 40
1
 40
1
 40
1
 40
1
 10
77.767040
 20
72.199410
 30
0.0
 10
78.665582
 20
79.557259
 30
0.0
 10
81.813519
 20
105.948458
 30
0.0
 10
82.526816
 20
120.250001
 30
0.0
  0
SPLINE
  5
272
100
AcDbEntity
  8
0
 62
1
100
AcDbSpline
 70
8
 71
3
 72
8
 73
4
 74
0
 40
0
 40
0
 40
0
 40
0
 40
1
 40
1
 40
1
 40
1
 10
82.526816
 20
120.250001
 30
0.0
 10
83.024953
 20
130.237589
 30
0.0
 10
90.639238
 20
144.402901
 30
0.0
 10
82.526816
 20
150.250003
 30
0.0
  0
SPLINE
  5
273
100
AcDbEntity
  8
0
 62
1
100
AcDbSpline
 70
8
 71
3
 72
8
 73
4
 74
0
 40
0
 40
0
 40
0
 40
0
 40
1
 40
1
 40
1
 40
1
 10
82.526816
 20
150.250003
 30
0.0
 10
78.251195
 20
153.331695
 30
0.0
 10
72.797279
 20
145.250002
 30
0.0
 10
67.526815
 20
145.250002
 30
0.0
  0
LWPOLYLINE
  5
274
100
AcDbEntity
  8
0
 62
1
100
AcDbPolyline
 90
2
 70
1
 10
73.186192
 20
52.228129
 30
0.0
 10
76.830869
 20
63.162155
 30
0.0
  0
LWPOLYLINE
  5
275
100
AcDbEntity
  8
0
 62
1
100
AcDbPolyline
 90
2
 70
1
 10
67.526815
 20
145.250002
 30
0.0
 10
67.526815
 20
145.250002
 30
0.0
  0
LWPOLYLINE
  5
276
100
AcDbEntity
  8
0
 62
7
100
AcDbPolyline
 90
2
 70
0
 10
47.526816
 20
40.249983
 30
0.0
 10
87.526818
 20
40.249983
 30
0.0
  0
LWPOLYLINE
  5
277
100
AcDbEntity
  8
0
 62
7
100
AcDbPolyline
 90
2
 70
0
 10
47.526816
 20
30.250003
 30
0.0
 10
87.526818
 20
30.250003
 30
0.0
  0
SPLINE
  5
278
100
AcDbEntity
  8
0
 62
7
100
AcDbSpline
 70
8
 71
3
 72
8
 73
4
 74
0
 40
0
 40
0
 40
0
 40
0
 40
1
 40
1
 40
1
 40
1
 10
65.386533
 20
67.749996
 30
0.0
 10
65.386717
 20
67.264146
 30
0.0
 10
64.936998
 20
66.815156
 30
0.0
 10
64.206824
 20
66.572200
 30
0.0
  0
SPLINE
  5
279
100
AcDbEntity
  8
0
 62
7
100
AcDbSpline
 70
8
 71
3
 72
8
 73
4
 74
0
 40
0
 40
0
 40
0
 40
0
 40
1
 40
1
 40
1
 40
1
 10
64.206824
 20
66.572200
 30
0.0
 10
63.476650
 20
66.329244
 30
0.0
 10
62.576985
 20
66.329244
 30
0.0
 10
61.846810
 20
66.572200
 30
0.0
  0
SPLINE
  5
27a
100
AcDbEntity
  8
0
 62
7
100
AcDbSpline
 70
8
 71
3
 72
8
 73
4
 74
0
 40
0
 40
0
 40
0
 40
0
 40
1
 40
1
 40
1
 40
1
 10
61.846810
 20
66.572200
 30
0.0
 10
61.116636
 20
66.815156
 30
0.0
 10
60.666917
 20
67.264146
 30
0.0
 10
60.667101
 20
67.749996
 30
0.0
  0
SPLINE
  5
27b
100
AcDbEntity
  8
0
 62
7
100
AcDbSpline
 70
8
 71
3
 72
8
 73
4
 74
0
 40
0
 40
0
 40
0
 40
0
 40
1
 40
1
 40
1
 40
1
 10
60.667101
 20
67.749996
 30
0.0
 10
60.666917
 20
68.235847
 30
0.0
 10
61.116636
 20
68.684836
 30
0.0
 10
61.846810
 20
68.927792
 30
0.0
  0
SPLINE
  5
27c
100
AcDbEntity
  8
0
 62
7
100
AcDbSpline
 70
8
 71
3
 72
8
 73
4
 74
0
 40
0
 40
0
 40
0
 40
0
 40
1
 40
1
 40
1
 40
1
 10
61.846810
 20
68.927792
 30
0.0
 10
62.576985
 20
69.170748
 30
0.0
 10
63.476650
 20
69.170748
 30
0.0
 10
64.206824
 20
68.927792
 30
0.0
  0
SPLINE
  5
27d
100
AcDbEntity
  8
0
 62
7
100
AcDbSpline
 70
8
 71
3
 72
8
 73
4
 74
0
 40
0
 40
0
 40
0
 40
0
 40
1
 40
1
 40
1
 40
1
 10
64.206824
 20
68.927792
 30
0.0
 10
64.936998
 20
68.684836
 30
0.0
 10
65.386717
 20
68.235847
 30
0.0
 10
65.386533
 20
67.749996
 30
0.0
  0
LWPOLYLINE
  5
27e
100
AcDbEntity
  8
0
 62
7
100
AcDbPolyline
 90
2
 70
0
 10
58.658240
 20
20.252369
 30
0.0
 10
76.658239
 20
20.252369
 30
0.0
  0
SPLINE
  5
27f
100
AcDbEntity
  8
0
 62
7
100
AcDbSpline
 70
8
 71
3
 72
8
 73
4
 74
0
 40
0
 40
0
 40
0
 40
0
 40
1
 40
1
 40
1
 40
1
 10
74.380121
 20
67.749973
 30
0.0
 10
74.380590
 20
67.266304
 30
0.0
 10
73.932156
 20
66.819260
 30
0.0
 10
73.203848
 20
66.577347
 30
0.0
  0
SPLINE
  5
280
100
AcDbEntity
  8
0
 62
7
100
AcDbSpline
 70
8
 71
3
 72
8
 73
4
 74
0
 40
0
 40
0
 40
0
 40
0
 40
1
 40
1
 40
1
 40
1
 10
73.203848
 20
66.577347
 30
0.0
 10
72.475540
 20
66.335435
 30
0.0
 10
71.578092
 20
66.335435
 30
0.0
 10
70.849784
 20
66.577347
 30
0.0
  0
SPLINE
  5
281
100
AcDbEntity
  8
0
 62
7
100
AcDbSpline
 70
8
 71
3
 72
8
 73
4
 74
0
 40
0
 40
0
 40
0
 40
0
 40
1
 40
1
 40
1
 40
1
 10
70.849784
 20
66.577347
 30
0.0
 10
70.121476
 20
66.819260
 30
0.0
 10
69.673042
 20
67.266304
 30
0.0
 10
69.673512
 20
67.749973
 30
0.0
  0
SPLINE
  5
282
100
AcDbEntity
  8
0
 62
7
100
AcDbSpline
 70
8
 71
3
 72
8
 73
4
 74
0
 40
0
 40
0
 40
0
 40
0
 40
1
 40
1
 40
1
 40
1
 10
69.673512
 20
67.749973
 30
0.0
 10
69.673042
 20
68.233643
 30
0.0
 10
70.121476
 20
68.680687
 30
0.0
 10
70.849784
 20
68.922600
 30
0.0
  0
SPLINE
  5
283
100
AcDbEntity
  8
0
 62
7
100
AcDbSpline
 70
8
 71
3
 72
8
 73
4
 74
0
 40
0
 40
0
 40
0
 40
0
 40
1
 40
1
 40
1
 40
1
 10
70.849784
 20
68.922600
 30
0.0
 10
71.578092
 20
69.164512
 30
0.0
 10
72.475540
 20
69.164512
 30
0.0
 10
73.203848
 20
68.922600
 30
0.0
  0
SPLINE
  5
284
100
AcDbEntity
  8
0
 62
7
100
AcDbSpline
 70
8
 71
3
 72
8
 73
4
 74
0
 40
0
 40
0
 40
0
 40
0
 40
1
 40
1
 40
1
 40
1
 10
73.203848
 20
68.922600
 30
0.0
 10
73.932156
 20
68.680687
 30
0.0
 10
74.380590
 20
68.233643
 30
0.0
 10
74.380121
 20
67.749973
 30
0.0
  0
LWPOLYLINE
  5
285
100
AcDbEntity
  8
0
 62
7
100
AcDbPolyline
 90
2
 70
1
 10
65.386533
 20
67.749996
 30
0.0
 10
65.386533
 20
67.749996
 30
0.0
  0
SPLINE
  5
286
100
AcDbEntity
  8
0
 62
7
100
AcDbSpline
 70
8
 71
3
 72
8
 73
4
 74
0
 40
0
 40
0
 40
0
 40
0
 40
1
 40
1
 40
1
 40
1
 10
62.588513
 20
60.187064
 30
0.0
 10
62.588513
 20
60.187064
 30
0.0
 10
65.572068
 20
57.174906
 30
0.0
 10
67.493843
 20
57.157296
 30
0.0
  0
SPLINE
  5
287
100
AcDbEntity
  8
0
 62
7
100
AcDbSpline
 70
8
 71
3
 72
8
 73
4
 74
0
 40
0
 40
0
 40
0
 40
0
 40
1
 40
1
 40
1
 40
1
 10
67.493843
 20
57.157296
 30
0.0
 10
69.506209
 20
57.138951
 30
0.0
 10
72.687720
 20
60.235155
 30
0.0
 10
72.687720
 20
60.235155
 30
0.0
  0
SPLINE
  5
288
100
AcDbEntity
  8
0
 62
7
100
AcDbSpline
 70
8
 71
3
 72
8
 73
4
 74
0
 40
0
 40
0
 40
0
 40
0
 40
1
 40
1
 40
1
 40
1
 10
72.687720
 20
60.235155
 30
0.0
 10
72.687720
 20
60.235155
 30
0.0
 10
69.284027
 20
59.323803
 30
0.0
 10
67.541934
 20
59.321432
 30
0.0
  0
SPLINE
  5
289
100
AcDbEntity
  8
0
 62
7
100
AcDbSpline
 70
8
 71
3
 72
8
 73
4
 74
0
 40
0
 40
0
 40
0
 40
0
 40
1
 40
1
 40
1
 40
1
 10
67.541934
 20
59.321432
 30
0.0
 10
65.865774
 20
59.318610
 30
0.0
 10
62.588513
 20
60.187064
 30
0.0
 10
62.588513
 20
60.187064
 30
0.0
  0
LWPOLYLINE
  5
28a
100
AcDbEntity
  8
0
 62
7
100
AcDbPolyline
 90
2
 70
1
 10
74.380121
 20
67.749973
 30
0.0
 10
74.380121
 20
67.749973
 30
0.0
  0
SPLINE
  5
28b
100
AcDbEntity
  8
0
 62
7
100
AcDbSpline
 70
8
 71
3
 72
8
 73
4
 74
0
 40
0
 40
0
 40
0
 40
0
 40
1
 40
1
 40
1
 40
1
 10
66.531629
 20
66.969530
 30
0.0
 10
66.531629
 20
66.969530
 30
0.0
 10
68.208754
 20
65.525797
 30
0.0
 10
68.795811
 20
64.698104
 30
0.0
  0
SPLINE
  5
28c
100
AcDbEntity
  8
0
 62
7
100
AcDbSpline
 70
8
 71
3
 72
8
 73
4
 74
0
 40
0
 40
0
 40
0
 40
0
 40
1
 40
1
 40
1
 40
1
 10
68.795811
 20
64.698104
 30
0.0
 10
69.382861
 20
63.870411
 30
0.0
 10
70.014988
 20
62.058367
 30
0.0
 10
70.014988
 20
62.058367
 30
0.0
  0
SPLINE
  5
28d
100
AcDbEntity
  8
0
 62
7
100
AcDbSpline
 70
8
 71
3
 72
8
 73
4
 74
0
 40
0
 40
0
 40
0
 40
0
 40
1
 40
1
 40
1
 40
1
 10
70.014988
 20
62.058367
 30
0.0
 10
70.014988
 20
62.058367
 30
0.0
 10
69.000309
 20
61.813542
 30
0.0
 10
68.534560
 20
61.935578
 30
0.0
  0
SPLINE
  5
28e
100
AcDbEntity
  8
0
 62
7
100
AcDbSpline
 70
8
 71
3
 72
8
 73
4
 74
0
 40
0
 40
0
 40
0
 40
0
 40
1
 40
1
 40
1
 40
1
 10
68.534560
 20
61.935578
 30
0.0
 10
68.091627
 20
62.051658
 30
0.0
 10
68.049084
 20
62.678878
 30
0.0
 10
67.576639
 20
62.672254
 30
0.0
  0
SPLINE
  5
28f
100
AcDbEntity
  8
0
 62
7
100
AcDbSpline
 70
8
 71
3
 72
8
 73
4
 74
0
 40
0
 40
0
 40
0
 40
0
 40
1
 40
1
 40
1
 40
1
 10
67.576639
 20
62.672254
 30
0.0
 10
67.082406
 20
62.665255
 30
0.0
 10
66.618712
 20
61.874211
 30
0.0
 10
66.618712
 20
61.874211
 30
0.0
  0
SPLINE
  5
290
100
AcDbEntity
  8
0
 62
7
100
AcDbSpline
 70
8
 71
3
 72
8
 73
4
 74
0
 40
0
 40
0
 40
0
 40
0
 40
1
 40
1
 40
1
 40
1
 10
64.201977
 20
67.650008
 30
0.0
 10
64.202175
 20
67.372937
 30
0.0
 10
64.054474
 20
67.116829
 30
0.0
 10
63.814557
 20
66.978237
 30
0.0
  0
SPLINE
  5
291
100
AcDbEntity
  8
0
 62
7
100
AcDbSpline
 70
8
 71
3
 72
8
 73
4
 74
0
 40
0
 40
0
 40
0
 40
0
 40
1
 40
1
 40
1
 40
1
 10
63.814557
 20
66.978237
 30
0.0
 10
63.574640
 20
66.839645
 30
0.0
 10
63.278993
 20
66.839645
 30
0.0
 10
63.039076
 20
66.978237
 30
0.0
  0
SPLINE
  5
292
100
AcDbEntity
  8
0
 62
7
100
AcDbSpline
 70
8
 71
3
 72
8
 73
4
 74
0
 40
0
 40
0
 40
0
 40
0
 40
1
 40
1
 40
1
 40
1
 10
63.039076
 20
66.978237
 30
0.0
 10
62.799159
 20
67.116829
 30
0.0
 10
62.651458
 20
67.372937
 30
0.0
 10
62.651656
 20
67.650008
 30
0.0
  0
SPLINE
  5
293
100
AcDbEntity
  8
0
 62
7
100
AcDbSpline
 70
8
 71
3
 72
8
 73
4
 74
0
 40
0
 40
0
 40
0
 40
0
 40
1
 40
1
 40
1
 40
1
 10
62.651656
 20
67.650008
 30
0.0
 10
62.651458
 20
67.927078
 30
0.0
 10
62.799159
 20
68.183186
 30
0.0
 10
63.039076
 20
68.321778
 30
0.0
  0
SPLINE
  5
294
100
AcDbEntity
  8
0
 62
7
100
AcDbSpline
 70
8
 71
3
 72
8
 73
4
 74
0
 40
0
 40
0
 40
0
 40
0
 40
1
 40
1
 40
1
 40
1
 10
63.039076
 20
68.321778
 30
0.0
 10
63.278993
 20
68.460370
 30
0.0
 10
63.574640
 20
68.460370
 30
0.0
 10
63.814557
 20
68.321778
 30
0.0
  0
SPLINE
  5
295
100
AcDbEntity
  8
0
 62
7
100
AcDbSpline
 70
8
 71
3
 72
8
 73
4
 74
0
 40
0
 40
0
 40
0
 40
0
 40
1
 40
1
 40
1
 40
1
 10
63.814557
 20
68.321778
 30
0.0
 10
64.054474
 20
68.183186
 30
0.0
 10
64.202175
 20
67.927078
 30
0.0
 10
64.201977
 20
67.650008
 30
0.0
  0
LWPOLYLINE
  5
296
100
AcDbEntity
  8
0
 62
7
100
AcDbPolyline
 90
2
 70
1
 10
62.588513
 20
60.187064
 30
0.0
 10
62.588513
 20
60.187064
 30
0.0
  0
SPLINE
  5
297
100
AcDbEntity
  8
0
 62
7
100
AcDbSpline
 70
8
 71
3
 72
8
 73
4
 74
0
 40
0
 40
0
 40
0
 40
0
 40
1
 40
1
 40
1
 40
1
 10
73.191629
 20
67.649999
 30
0.0
 10
73.191944
 20
67.376548
 30
0.0
 10
73.046241
 20
67.123734
 30
0.0
 10
72.809478
 20
66.986918
 30
0.0
  0
SPLINE
  5
298
100
AcDbEntity
  8
0
 62
7
100
AcDbSpline
 70
8
 71
3
 72
8
 73
4
 74
0
 40
0
 40
0
 40
0
 40
0
 40
1
 40
1
 40
1
 40
1
 10
72.809478
 20
66.986918
 30
0.0
 10
72.572715
 20
66.850101
 30
0.0
 10
72.280920
 20
66.850101
 30
0.0
 10
72.044157
 20
66.986918
 30
0.0
  0
SPLINE
  5
299
100
AcDbEntity
  8
0
 62
7
100
AcDbSpline
 70
8
 71
3
 72
8
 73
4
 74
0
 40
0
 40
0
 40
0
 40
0
 40
1
 40
1
 40
1
 40
1
 10
72.044157
 20
66.986918
 30
0.0
 10
71.807394
 20
67.123734
 30
0.0
 10
71.661690
 20
67.376548
 30
0.0
 10
71.662006
 20
67.649999
 30
0.0
  0
SPLINE
  5
29a
100
AcDbEntity
  8
0
 62
7
100
AcDbSpline
 70
8
 71
3
 72
8
 73
4
 74
0
 40
0
 40
0
 40
0
 40
0
 40
1
 40
1
 40
1
 40
1
 10
71.662006
 20
67.649999
 30
0.0
 10
71.661690
 20
67.923450
 30
0.0
 10
71.807394
 20
68.176264
 30
0.0
 10
72.044157
 20
68.313080
 30
0.0
  0
SPLINE
  5
29b
100
AcDbEntity
  8
0
 62
7
100
AcDbSpline
 70
8
 71
3
 72
8
 73
4
 74
0
 40
0
 40
0
 40
0
 40
0
 40
1
 40
1
 40
1
 40
1
 10
72.044157
 20
68.313080
 30
0.0
 10
72.280920
 20
68.449897
 30
0.0
 10
72.572715
 20
68.449897
 30
0.0
 10
72.809478
 20
68.313080
 30
0.0
  0
SPLINE
  5
29c
100
AcDbEntity
  8
0
 62
7
100
AcDbSpline
 70
8
 71
3
 72
8
 73
4
 74
0
 40
0
 40
0
 40
0
 40
0
 40
1
 40
1
 40
1
 40
1
 10
72.809478
 20
68.313080
 30
0.0
 10
73.046241
 20
68.176264
 30
0.0
 10
73.191944
 20
67.923450
 30
0.0
 10
73.191629
 20
67.649999
 30
0.0
  0
LWPOLYLINE
  5
29d
100
AcDbEntity
  8
0
 62
7
100
AcDbPolyline
 90
2
 70
1
 10
64.201977
 20
67.650008
 30
0.0
 10
64.201977
 20
67.650008
 30
0.0
  0
SPLINE
  5
29e
100
AcDbEntity
  8
0
 62
1
100
AcDbSpline
 70
8
 71
3
 72
8
 73
4
 74
0
 40
0
 40
0
 40
0
 40
0
 40
1
 40
1
 40
1
 40
1
 10
113.951502
 20
311.567356
 30
0.0
 10
108.681041
 20
311.567356
 30
0.0
 10
103.227125
 20
319.649049
 30
0.0
 10
98.951503
 20
316.567357
 30
0.0
  0
SPLINE
  5
29f
100
AcDbEntity
  8
0
 62
1
100
AcDbSpline
 70
8
 71
3
 72
8
 73
4
 74
0
 40
0
 40
0
 40
0
 40
0
 40
1
 40
1
 40
1
 40
1
 10
98.951503
 20
316.567357
 30
0.0
 10
90.839081
 20
310.720255
 30
0.0
 10
98.453367
 20
296.554943
 30
0.0
 10
98.951503
 20
286.567355
 30
0.0
  0
SPLINE
  5
2a0
100
AcDbEntity
  8
0
 62
1
100
AcDbSpline
 70
8
 71
3
 72
8
 73
4
 74
0
 40
0
 40
0
 40
0
 40
0
 40
1
 40
1
 40
1
 40
1
 10
98.951503
 20
286.567355
 30
0.0
 10
99.610614
 20
273.352260
 30
0.0
 10
102.348508
 20
249.814569
 30
0.0
 10
103.469610
 20
240.509504
 30
0.0
  0
SPLINE
  5
2a1
100
AcDbEntity
  8
0
 62
1
100
AcDbSpline
 70
8
 71
3
 72
8
 73
4
 74
0
 40
0
 40
0
 40
0
 40
0
 40
1
 40
1
 40
1
 40
1
 10
103.469610
 20
240.509504
 30
0.0
 10
103.767713
 20
238.035285
 30
0.0
 10
105.203304
 20
236.998079
 30
0.0
 10
103.951502
 20
236.567354
 30
0.0
  0
SPLINE
  5
2a2
100
AcDbEntity
  8
0
 62
1
100
AcDbSpline
 70
8
 71
3
 72
8
 73
4
 74
0
 40
0
 40
0
 40
0
 40
0
 40
1
 40
1
 40
1
 40
1
 10
103.951502
 20
236.567354
 30
0.0
 10
102.843461
 20
236.186094
 30
0.0
 10
103.183987
 20
238.172329
 30
0.0
 10
102.140634
 20
239.580454
 30
0.0
  0
SPLINE
  5
2a3
100
AcDbEntity
  8
0
 62
1
100
AcDbSpline
 70
8
 71
3
 72
8
 73
4
 74
0
 40
0
 40
0
 40
0
 40
0
 40
1
 40
1
 40
1
 40
1
 10
102.140634
 20
239.580454
 30
0.0
 10
101.183218
 20
240.872597
 30
0.0
 10
99.993536
 20
241.998980
 30
0.0
 10
98.951501
 20
241.567355
 30
0.0
  0
SPLINE
  5
2a4
100
AcDbEntity
  8
0
 62
1
100
AcDbSpline
 70
8
 71
3
 72
8
 73
4
 74
0
 40
0
 40
0
 40
0
 40
0
 40
1
 40
1
 40
1
 40
1
 10
98.951501
 20
241.567355
 30
0.0
 10
94.332104
 20
239.653939
 30
0.0
 10
94.332101
 20
228.480767
 30
0.0
 10
98.951503
 20
226.567354
 30
0.0
  0
SPLINE
  5
2a5
100
AcDbEntity
  8
0
 62
1
100
AcDbSpline
 70
8
 71
3
 72
8
 73
4
 74
0
 40
0
 40
0
 40
0
 40
0
 40
1
 40
1
 40
1
 40
1
 10
98.951503
 20
226.567354
 30
0.0
 10
100.247358
 20
226.030596
 30
0.0
 10
101.771547
 20
227.903284
 30
0.0
 10
102.793423
 20
229.507858
 30
0.0
  0
SPLINE
  5
2a6
100
AcDbEntity
  8
0
 62
1
100
AcDbSpline
 70
8
 71
3
 72
8
 73
4
 74
0
 40
0
 40
0
 40
0
 40
0
 40
1
 40
1
 40
1
 40
1
 10
102.793423
 20
229.507858
 30
0.0
 10
103.488748
 20
230.599675
 30
0.0
 10
103.167483
 20
231.642257
 30
0.0
 10
103.951502
 20
231.567355
 30
0.0
  0
SPLINE
  5
2a7
100
AcDbEntity
  8
0
 62
1
100
AcDbSpline
 70
8
 71
3
 72
8
 73
4
 74
0
 40
0
 40
0
 40
0
 40
0
 40
1
 40
1
 40
1
 40
1
 10
103.951502
 20
231.567355
 30
0.0
 10
104.670034
 20
231.498708
 30
0.0
 10
104.636263
 20
229.513068
 30
0.0
 10
104.636263
 20
229.513068
 30
0.0
  0
LWPOLYLINE
  5
2a8
100
AcDbEntity
  8
0
 62
7
100
AcDbPolyline
 90
2
 70
1
 10
73.191629
 20
67.649999
 30
0.0
 10
73.191629
 20
67.649999
 30
0.0
  0
SPLINE
  5
2a9
100
AcDbEntity
  8
0
 62
1
100
AcDbSpline
 70
8
 71
3
 72
8
 73
4
 74
0
 40
0
 40
0
 40
0
 40
0
 40
1
 40
1
 40
1
 40
1
 10
108.309086
 20
218.494607
 30
0.0
 10
108.970086
 20
217.349722
 30
0.0
 10
108.605149
 20
216.567357
 30
0.0
 10
108.111937
 20
216.567357
 30
0.0
  0
LWPOLYLINE
  5
2aa
100
AcDbEntity
  8
0
 62
1
100
AcDbPolyline
 90
2
 70
1
 10
104.636263
 20
229.513068
 30
0.0
 10
108.309086
 20
218.494607
 30
0.0
  0
SPLINE
  5
2ab
100
AcDbEntity
  8
0
 62
1
100
AcDbSpline
 70
8
 71
3
 72
8
 73
4
 74
0
 40
0
 40
0
 40
0
 40
0
 40
1
 40
1
 40
1
 40
1
 10
93.951502
 20
216.567357
 30
0.0
 10
93.951502
 20
216.567357
 30
0.0
 10
92.036895
 20
199.677765
 30
0.0
 10
93.951502
 20
191.567356
 30
0.0
  0
SPLINE
  5
2ac
100
AcDbEntity
  8
0
 62
1
100
AcDbSpline
 70
8
 71
3
 72
8
 73
4
 74
0
 40
0
 40
0
 40
0
 40
0
 40
1
 40
1
 40
1
 40
1
 10
93.951502
 20
191.567356
 30
0.0
 10
94.807742
 20
187.940273
 30
0.0
 10
95.272847
 20
182.164321
 30
0.0
 10
98.951503
 20
181.567357
 30
0.0
  0
SPLINE
  5
2ad
100
AcDbEntity
  8
0
 62
1
100
AcDbSpline
 70
8
 71
3
 72
8
 73
4
 74
0
 40
0
 40
0
 40
0
 40
0
 40
1
 40
1
 40
1
 40
1
 10
98.951503
 20
181.567357
 30
0.0
 10
100.304776
 20
181.347751
 30
0.0
 10
101.775391
 20
183.075236
 30
0.0
 10
102.768996
 20
184.559033
 30
0.0
  0
SPLINE
  5
2ae
100
AcDbEntity
  8
0
 62
1
100
AcDbSpline
 70
8
 71
3
 72
8
 73
4
 74
0
 40
0
 40
0
 40
0
 40
0
 40
1
 40
1
 40
1
 40
1
 10
102.768996
 20
184.559033
 30
0.0
 10
103.483625
 20
185.626223
 30
0.0
 10
103.201973
 20
186.771630
 30
0.0
 10
103.951502
 20
186.567358
 30
0.0
  0
SPLINE
  5
2af
100
AcDbEntity
  8
0
 62
1
100
AcDbSpline
 70
8
 71
3
 72
8
 73
4
 74
0
 40
0
 40
0
 40
0
 40
0
 40
1
 40
1
 40
1
 40
1
 10
103.951502
 20
186.567358
 30
0.0
 10
107.167537
 20
185.690877
 30
0.0
 10
105.703941
 20
179.402859
 30
0.0
 10
103.951502
 20
176.567358
 30
0.0
  0
SPLINE
  5
2b0
100
AcDbEntity
  8
0
 62
1
100
AcDbSpline
 70
8
 71
3
 72
8
 73
4
 74
0
 40
0
 40
0
 40
0
 40
0
 40
1
 40
1
 40
1
 40
1
 10
103.951502
 20
176.567358
 30
0.0
 10
101.992219
 20
173.397167
 30
0.0
 10
95.910788
 20
174.737545
 30
0.0
 10
93.951502
 20
171.567357
 30
0.0
  0
SPLINE
  5
2b1
100
AcDbEntity
  8
0
 62
1
100
AcDbSpline
 70
8
 71
3
 72
8
 73
4
 74
0
 40
0
 40
0
 40
0
 40
0
 40
1
 40
1
 40
1
 40
1
 10
93.951502
 20
171.567357
 30
0.0
 10
93.075284
 20
170.149605
 30
0.0
 10
93.951502
 20
166.567355
 30
0.0
 10
93.951502
 20
166.567355
 30
0.0
  0
LWPOLYLINE
  5
2b2
100
AcDbEntity
  8
0
 62
1
100
AcDbPolyline
 90
3
 70
1
 10
108.111937
 20
216.567357
 30
0.0
 10
106.113699
 20
216.567357
 30
0.0
 10
93.951502
 20
216.567357
 30
0.0
  0
SPLINE
  5
2b3
100
AcDbEntity
  8
0
 62
1
100
AcDbSpline
 70
8
 71
3
 72
8
 73
4
 74
0
 40
0
 40
0
 40
0
 40
0
 40
1
 40
1
 40
1
 40
1
 10
133.951504
 20
166.567355
 30
0.0
 10
133.951504
 20
166.567355
 30
0.0
 10
134.827722
 20
170.149605
 30
0.0
 10
133.951504
 20
171.567357
 30
0.0
  0
SPLINE
  5
2b4
100
AcDbEntity
  8
0
 62
1
100
AcDbSpline
 70
8
 71
3
 72
8
 73
4
 74
0
 40
0
 40
0
 40
0
 40
0
 40
1
 40
1
 40
1
 40
1
 10
133.951504
 20
171.567357
 30
0.0
 10
131.992218
 20
174.737545
 30
0.0
 10
125.910787
 20
173.397167
 30
0.0
 10
123.951504
 20
176.567358
 30
0.0
  0
SPLINE
  5
2b5
100
AcDbEntity
  8
0
 62
1
100
AcDbSpline
 70
8
 71
3
 72
8
 73
4
 74
0
 40
0
 40
0
 40
0
 40
0
 40
1
 40
1
 40
1
 40
1
 10
123.951504
 20
176.567358
 30
0.0
 10
122.199065
 20
179.402859
 30
0.0
 10
120.735303
 20
185.691484
 30
0.0
 10
123.951504
 20
186.567358
 30
0.0
  0
SPLINE
  5
2b6
100
AcDbEntity
  8
0
 62
1
100
AcDbSpline
 70
8
 71
3
 72
8
 73
4
 74
0
 40
0
 40
0
 40
0
 40
0
 40
1
 40
1
 40
1
 40
1
 10
123.951504
 20
186.567358
 30
0.0
 10
124.696176
 20
186.770154
 30
0.0
 10
124.415684
 20
185.633662
 30
0.0
 10
125.125535
 20
184.571705
 30
0.0
  0
SPLINE
  5
2b7
100
AcDbEntity
  8
0
 62
1
100
AcDbSpline
 70
8
 71
3
 72
8
 73
4
 74
0
 40
0
 40
0
 40
0
 40
0
 40
1
 40
1
 40
1
 40
1
 10
125.125535
 20
184.571705
 30
0.0
 10
126.119239
 20
183.085091
 30
0.0
 10
127.594375
 20
181.347124
 30
0.0
 10
128.951503
 20
181.567357
 30
0.0
  0
SPLINE
  5
2b8
100
AcDbEntity
  8
0
 62
1
100
AcDbSpline
 70
8
 71
3
 72
8
 73
4
 74
0
 40
0
 40
0
 40
0
 40
0
 40
1
 40
1
 40
1
 40
1
 10
128.951503
 20
181.567357
 30
0.0
 10
132.630159
 20
182.164321
 30
0.0
 10
133.095264
 20
187.940273
 30
0.0
 10
133.951504
 20
191.567356
 30
0.0
  0
SPLINE
  5
2b9
100
AcDbEntity
  8
0
 62
1
100
AcDbSpline
 70
8
 71
3
 72
8
 73
4
 74
0
 40
0
 40
0
 40
0
 40
0
 40
1
 40
1
 40
1
 40
1
 10
133.951504
 20
191.567356
 30
0.0
 10
135.866111
 20
199.677765
 30
0.0
 10
133.951504
 20
216.567357
 30
0.0
 10
133.951504
 20
216.567357
 30
0.0
  0
LWPOLYLINE
  5
2ba
100
AcDbEntity
  8
0
 62
1
100
AcDbPolyline
 90
2
 70
1
 10
93.951502
 20
166.567355
 30
0.0
 10
133.951504
 20
166.567355
 30
0.0
  0
SPLINE
  5
2bb
100
AcDbEntity
  8
0
 62
1
100
AcDbSpline
 70
8
 71
3
 72
8
 73
4
 74
0
 40
0
 40
0
 40
0
 40
0
 40
1
 40
1
 40
1
 40
1
 10
120.045086
 20
216.567357
 30
0.0
 10
120.045086
 20
216.567357
 30
0.0
 10
119.207435
 20
217.335154
 30
0.0
 10
119.610878
 20
218.545484
 30
0.0
  0
LWPOLYLINE
  5
2bc
100
AcDbEntity
  8
0
 62
1
100
AcDbPolyline
 90
3
 70
1
 10
133.951504
 20
216.567357
 30
0.0
 10
122.099613
 20
216.567357
 30
0.0
 10
120.045086
 20
216.567357
 30
0.0
  0
SPLINE
  5
2bd
100
AcDbEntity
  8
0
 62
1
100
AcDbSpline
 70
8
 71
3
 72
8
 73
4
 74
0
 40
0
 40
0
 40
0
 40
0
 40
1
 40
1
 40
1
 40
1
 10
123.255555
 20
229.479509
 30
0.0
 10
123.255555
 20
229.479509
 30
0.0
 10
123.221234
 20
231.497584
 30
0.0
 10
123.951504
 20
231.567355
 30
0.0
  0
SPLINE
  5
2be
100
AcDbEntity
  8
0
 62
1
100
AcDbSpline
 70
8
 71
3
 72
8
 73
4
 74
0
 40
0
 40
0
 40
0
 40
0
 40
1
 40
1
 40
1
 40
1
 10
123.951504
 20
231.567355
 30
0.0
 10
124.735650
 20
231.642274
 30
0.0
 10
124.414351
 20
230.599483
 30
0.0
 10
125.109789
 20
229.507534
 30
0.0
  0
SPLINE
  5
2bf
100
AcDbEntity
  8
0
 62
1
100
AcDbSpline
 70
8
 71
3
 72
8
 73
4
 74
0
 40
0
 40
0
 40
0
 40
0
 40
1
 40
1
 40
1
 40
1
 10
125.109789
 20
229.507534
 30
0.0
 10
126.131665
 20
227.903030
 30
0.0
 10
127.655736
 20
226.030632
 30
0.0
 10
128.951503
 20
226.567354
 30
0.0
  0
SPLINE
  5
2c0
100
AcDbEntity
  8
0
 62
1
100
AcDbSpline
 70
8
 71
3
 72
8
 73
4
 74
0
 40
0
 40
0
 40
0
 40
0
 40
1
 40
1
 40
1
 40
1
 10
128.951503
 20
226.567354
 30
0.0
 10
133.570902
 20
228.480764
 30
0.0
 10
133.570899
 20
239.653939
 30
0.0
 10
128.951503
 20
241.567355
 30
0.0
  0
SPLINE
  5
2c1
100
AcDbEntity
  8
0
 62
1
100
AcDbSpline
 70
8
 71
3
 72
8
 73
4
 74
0
 40
0
 40
0
 40
0
 40
0
 40
1
 40
1
 40
1
 40
1
 10
128.951503
 20
241.567355
 30
0.0
 10
127.627251
 20
242.115879
 30
0.0
 10
126.064547
 20
240.148195
 30
0.0
 10
125.043134
 20
238.521779
 30
0.0
  0
SPLINE
  5
2c2
100
AcDbEntity
  8
0
 62
1
100
AcDbSpline
 70
8
 71
3
 72
8
 73
4
 74
0
 40
0
 40
0
 40
0
 40
0
 40
1
 40
1
 40
1
 40
1
 10
125.043134
 20
238.521779
 30
0.0
 10
124.384933
 20
237.473708
 30
0.0
 10
124.660765
 20
236.335460
 30
0.0
 10
123.951504
 20
236.567354
 30
0.0
  0
SPLINE
  5
2c3
100
AcDbEntity
  8
0
 62
1
100
AcDbSpline
 70
8
 71
3
 72
8
 73
4
 74
0
 40
0
 40
0
 40
0
 40
0
 40
1
 40
1
 40
1
 40
1
 10
123.951504
 20
236.567354
 30
0.0
 10
123.329201
 20
236.770816
 30
0.0
 10
124.039213
 20
237.267889
 30
0.0
 10
124.191726
 20
238.516764
 30
0.0
  0
SPLINE
  5
2c4
100
AcDbEntity
  8
0
 62
1
100
AcDbSpline
 70
8
 71
3
 72
8
 73
4
 74
0
 40
0
 40
0
 40
0
 40
0
 40
1
 40
1
 40
1
 40
1
 10
124.191726
 20
238.516764
 30
0.0
 10
125.090268
 20
245.874614
 30
0.0
 10
128.238206
 20
272.265812
 30
0.0
 10
128.951503
 20
286.567355
 30
0.0
  0
SPLINE
  5
2c5
100
AcDbEntity
  8
0
 62
1
100
AcDbSpline
 70
8
 71
3
 72
8
 73
4
 74
0
 40
0
 40
0
 40
0
 40
0
 40
1
 40
1
 40
1
 40
1
 10
128.951503
 20
286.567355
 30
0.0
 10
129.449639
 20
296.554943
 30
0.0
 10
137.063924
 20
310.720255
 30
0.0
 10
128.951503
 20
316.567357
 30
0.0
  0
SPLINE
  5
2c6
100
AcDbEntity
  8
0
 62
1
100
AcDbSpline
 70
8
 71
3
 72
8
 73
4
 74
0
 40
0
 40
0
 40
0
 40
0
 40
1
 40
1
 40
1
 40
1
 10
128.951503
 20
316.567357
 30
0.0
 10
124.675881
 20
319.649049
 30
0.0
 10
119.221965
 20
311.567356
 30
0.0
 10
113.951502
 20
311.567356
 30
0.0
  0
LWPOLYLINE
  5
2c7
100
AcDbEntity
  8
0
 62
1
100
AcDbPolyline
 90
2
 70
1
 10
119.610878
 20
218.545484
 30
0.0
 10
123.255555
 20
229.479509
 30
0.0
  0
LWPOLYLINE
  5
2c8
100
AcDbEntity
  8
0
 62
1
100
AcDbPolyline
 90
2
 70
1
 10
113.951502
 20
311.567356
 30
0.0
 10
113.951502
 20
311.567356
 30
0.0
  0
LWPOLYLINE
  5
2c9
100
AcDbEntity
  8
0
 62
7
100
AcDbPolyline
 90
2
 70
0
 10
93.951502
 20
206.567338
 30
0.0
 10
133.951504
 20
206.567338
 30
0.0
  0
LWPOLYLINE
  5
2ca
100
AcDbEntity
  8
0
 62
7
100
AcDbPolyline
 90
2
 70
0
 10
93.951502
 20
196.567358
 30
0.0
 10
133.951504
 20
196.567358
 30
0.0
  0
SPLINE
  5
2cb
100
AcDbEntity
  8
0
 62
7
100
AcDbSpline
 70
8
 71
3
 72
8
 73
4
 74
0
 40
0
 40
0
 40
0
 40
0
 40
1
 40
1
 40
1
 40
1
 10
111.811219
 20
234.067350
 30
0.0
 10
111.811404
 20
233.581500
 30
0.0
 10
111.361685
 20
233.132510
 30
0.0
 10
110.631510
 20
232.889554
 30
0.0
  0
SPLINE
  5
2cc
100
AcDbEntity
  8
0
 62
7
100
AcDbSpline
 70
8
 71
3
 72
8
 73
4
 74
0
 40
0
 40
0
 40
0
 40
0
 40
1
 40
1
 40
1
 40
1
 10
110.631510
 20
232.889554
 30
0.0
 10
109.901336
 20
232.646598
 30
0.0
 10
109.001671
 20
232.646598
 30
0.0
 10
108.271497
 20
232.889554
 30
0.0
  0
SPLINE
  5
2cd
100
AcDbEntity
  8
0
 62
7
100
AcDbSpline
 70
8
 71
3
 72
8
 73
4
 74
0
 40
0
 40
0
 40
0
 40
0
 40
1
 40
1
 40
1
 40
1
 10
108.271497
 20
232.889554
 30
0.0
 10
107.541322
 20
233.132510
 30
0.0
 10
107.091603
 20
233.581500
 30
0.0
 10
107.091788
 20
234.067350
 30
0.0
  0
SPLINE
  5
2ce
100
AcDbEntity
  8
0
 62
7
100
AcDbSpline
 70
8
 71
3
 72
8
 73
4
 74
0
 40
0
 40
0
 40
0
 40
0
 40
1
 40
1
 40
1
 40
1
 10
107.091788
 20
234.067350
 30
0.0
 10
107.091603
 20
234.553201
 30
0.0
 10
107.541322
 20
235.002191
 30
0.0
 10
108.271497
 20
235.245147
 30
0.0
  0
SPLINE
  5
2cf
100
AcDbEntity
  8
0
 62
7
100
AcDbSpline
 70
8
 71
3
 72
8
 73
4
 74
0
 40
0
 40
0
 40
0
 40
0
 40
1
 40
1
 40
1
 40
1
 10
108.271497
 20
235.245147
 30
0.0
 10
109.001671
 20
235.488102
 30
0.0
 10
109.901336
 20
235.488102
 30
0.0
 10
110.631510
 20
235.245147
 30
0.0
  0
SPLINE
  5
2d0
100
AcDbEntity
  8
0
 62
7
100
AcDbSpline
 70
8
 71
3
 72
8
 73
4
 74
0
 40
0
 40
0
 40
0
 40
0
 40
1
 40
1
 40
1
 40
1
 10
110.631510
 20
235.245147
 30
0.0
 10
111.361685
 20
235.002191
 30
0.0
 10
111.811404
 20
234.553201
 30
0.0
 10
111.811219
 20
234.067350
 30
0.0
  0
LWPOLYLINE
  5
2d1
100
AcDbEntity
  8
0
 62
7
100
AcDbPolyline
 90
2
 70
0
 10
105.082927
 20
186.569723
 30
0.0
 10
123.082926
 20
186.569723
 30
0.0
  0
SPLINE
  5
2d2
100
AcDbEntity
  8
0
 62
7
100
AcDbSpline
 70
8
 71
3
 72
8
 73
4
 74
0
 40
0
 40
0
 40
0
 40
0
 40
1
 40
1
 40
1
 40
1
 10
120.804807
 20
234.067328
 30
0.0
 10
120.805277
 20
233.583658
 30
0.0
 10
120.356842
 20
233.136614
 30
0.0
 10
119.628534
 20
232.894701
 30
0.0
  0
SPLINE
  5
2d3
100
AcDbEntity
  8
0
 62
7
100
AcDbSpline
 70
8
 71
3
 72
8
 73
4
 74
0
 40
0
 40
0
 40
0
 40
0
 40
1
 40
1
 40
1
 40
1
 10
119.628534
 20
232.894701
 30
0.0
 10
118.900226
 20
232.652789
 30
0.0
 10
118.002779
 20
232.652789
 30
0.0
 10
117.274471
 20
232.894701
 30
0.0
  0
SPLINE
  5
2d4
100
AcDbEntity
  8
0
 62
7
100
AcDbSpline
 70
8
 71
3
 72
8
 73
4
 74
0
 40
0
 40
0
 40
0
 40
0
 40
1
 40
1
 40
1
 40
1
 10
117.274471
 20
232.894701
 30
0.0
 10
116.546163
 20
233.136614
 30
0.0
 10
116.097728
 20
233.583658
 30
0.0
 10
116.098198
 20
234.067328
 30
0.0
  0
SPLINE
  5
2d5
100
AcDbEntity
  8
0
 62
7
100
AcDbSpline
 70
8
 71
3
 72
8
 73
4
 74
0
 40
0
 40
0
 40
0
 40
0
 40
1
 40
1
 40
1
 40
1
 10
116.098198
 20
234.067328
 30
0.0
 10
116.097728
 20
234.550997
 30
0.0
 10
116.546163
 20
234.998041
 30
0.0
 10
117.274471
 20
235.239954
 30
0.0
  0
SPLINE
  5
2d6
100
AcDbEntity
  8
0
 62
7
100
AcDbSpline
 70
8
 71
3
 72
8
 73
4
 74
0
 40
0
 40
0
 40
0
 40
0
 40
1
 40
1
 40
1
 40
1
 10
117.274471
 20
235.239954
 30
0.0
 10
118.002779
 20
235.481867
 30
0.0
 10
118.900226
 20
235.481867
 30
0.0
 10
119.628534
 20
235.239954
 30
0.0
  0
SPLINE
  5
2d7
100
AcDbEntity
  8
0
 62
7
100
AcDbSpline
 70
8
 71
3
 72
8
 73
4
 74
0
 40
0
 40
0
 40
0
 40
0
 40
1
 40
1
 40
1
 40
1
 10
119.628534
 20
235.239954
 30
0.0
 10
120.356842
 20
234.998041
 30
0.0
 10
120.805277
 20
234.550997
 30
0.0
 10
120.804807
 20
234.067328
 30
0.0
  0
LWPOLYLINE
  5
2d8
100
AcDbEntity
  8
0
 62
7
100
AcDbPolyline
 90
2
 70
1
 10
111.811219
 20
234.067350
 30
0.0
 10
111.811219
 20
234.067350
 30
0.0
  0
SPLINE
  5
2d9
100
AcDbEntity
  8
0
 62
7
100
AcDbSpline
 70
8
 71
3
 72
8
 73
4
 74
0
 40
0
 40
0
 40
0
 40
0
 40
1
 40
1
 40
1
 40
1
 10
109.013200
 20
226.504418
 30
0.0
 10
109.013200
 20
226.504418
 30
0.0
 10
111.996754
 20
223.492261
 30
0.0
 10
113.918530
 20
223.474650
 30
0.0
  0
SPLINE
  5
2da
100
AcDbEntity
  8
0
 62
7
100
AcDbSpline
 70
8
 71
3
 72
8
 73
4
 74
0
 40
0
 40
0
 40
0
 40
0
 40
1
 40
1
 40
1
 40
1
 10
113.918530
 20
223.474650
 30
0.0
 10
115.930895
 20
223.456306
 30
0.0
 10
119.112406
 20
226.552509
 30
0.0
 10
119.112406
 20
226.552509
 30
0.0
  0
SPLINE
  5
2db
100
AcDbEntity
  8
0
 62
7
100
AcDbSpline
 70
8
 71
3
 72
8
 73
4
 74
0
 40
0
 40
0
 40
0
 40
0
 40
1
 40
1
 40
1
 40
1
 10
119.112406
 20
226.552509
 30
0.0
 10
119.112406
 20
226.552509
 30
0.0
 10
115.708713
 20
225.641157
 30
0.0
 10
113.966620
 20
225.638786
 30
0.0
  0
SPLINE
  5
2dc
100
AcDbEntity
  8
0
 62
7
100
AcDbSpline
 70
8
 71
3
 72
8
 73
4
 74
0
 40
0
 40
0
 40
0
 40
0
 40
1
 40
1
 40
1
 40
1
 10
113.966620
 20
225.638786
 30
0.0
 10
112.290460
 20
225.635964
 30
0.0
 10
109.013200
 20
226.504418
 30
0.0
 10
109.013200
 20
226.504418
 30
0.0
  0
LWPOLYLINE
  5
2dd
100
AcDbEntity
  8
0
 62
7
100
AcDbPolyline
 90
2
 70
1
 10
120.804807
 20
234.067328
 30
0.0
 10
120.804807
 20
234.067328
 30
0.0
  0
SPLINE
  5
2de
100
AcDbEntity
  8
0
 62
7
100
AcDbSpline
 70
8
 71
3
 72
8
 73
4
 74
0
 40
0
 40
0
 40
0
 40
0
 40
1
 40
1
 40
1
 40
1
 10
112.956315
 20
233.286885
 30
0.0
 10
112.956315
 20
233.286885
 30
0.0
 10
114.633441
 20
231.843151
 30
0.0
 10
115.220497
 20
231.015458
 30
0.0
  0
SPLINE
  5
2df
100
AcDbEntity
  8
0
 62
7
100
AcDbSpline
 70
8
 71
3
 72
8
 73
4
 74
0
 40
0
 40
0
 40
0
 40
0
 40
1
 40
1
 40
1
 40
1
 10
115.220497
 20
231.015458
 30
0.0
 10
115.807547
 20
230.187766
 30
0.0
 10
116.439674
 20
228.375721
 30
0.0
 10
116.439674
 20
228.375721
 30
0.0
  0
SPLINE
  5
2e0
100
AcDbEntity
  8
0
 62
7
100
AcDbSpline
 70
8
 71
3
 72
8
 73
4
 74
0
 40
0
 40
0
 40
0
 40
0
 40
1
 40
1
 40
1
 40
1
 10
116.439674
 20
228.375721
 30
0.0
 10
116.439674
 20
228.375721
 30
0.0
 10
115.424995
 20
228.130896
 30
0.0
 10
114.959247
 20
228.252932
 30
0.0
  0
SPLINE
  5
2e1
100
AcDbEntity
  8
0
 62
7
100
AcDbSpline
 70
8
 71
3
 72
8
 73
4
 74
0
 40
0
 40
0
 40
0
 40
0
 40
1
 40
1
 40
1
 40
1
 10
114.959247
 20
228.252932
 30
0.0
 10
114.516313
 20
228.369013
 30
0.0
 10
114.473771
 20
228.996232
 30
0.0
 10
114.001325
 20
228.989608
 30
0.0
  0
SPLINE
  5
2e2
100
AcDbEntity
  8
0
 62
7
100
AcDbSpline
 70
8
 71
3
 72
8
 73
4
 74
0
 40
0
 40
0
 40
0
 40
0
 40
1
 40
1
 40
1
 40
1
 10
114.001325
 20
228.989608
 30
0.0
 10
113.507092
 20
228.982609
 30
0.0
 10
113.043398
 20
228.191565
 30
0.0
 10
113.043398
 20
228.191565
 30
0.0
  0
SPLINE
  5
2e3
100
AcDbEntity
  8
0
 62
7
100
AcDbSpline
 70
8
 71
3
 72
8
 73
4
 74
0
 40
0
 40
0
 40
0
 40
0
 40
1
 40
1
 40
1
 40
1
 10
110.626664
 20
233.967362
 30
0.0
 10
110.626861
 20
233.690292
 30
0.0
 10
110.479160
 20
233.434184
 30
0.0
 10
110.239243
 20
233.295591
 30
0.0
  0
SPLINE
  5
2e4
100
AcDbEntity
  8
0
 62
7
100
AcDbSpline
 70
8
 71
3
 72
8
 73
4
 74
0
 40
0
 40
0
 40
0
 40
0
 40
1
 40
1
 40
1
 40
1
 10
110.239243
 20
233.295591
 30
0.0
 10
109.999326
 20
233.156999
 30
0.0
 10
109.703679
 20
233.156999
 30
0.0
 10
109.463762
 20
233.295591
 30
0.0
  0
SPLINE
  5
2e5
100
AcDbEntity
  8
0
 62
7
100
AcDbSpline
 70
8
 71
3
 72
8
 73
4
 74
0
 40
0
 40
0
 40
0
 40
0
 40
1
 40
1
 40
1
 40
1
 10
109.463762
 20
233.295591
 30
0.0
 10
109.223846
 20
233.434184
 30
0.0
 10
109.076144
 20
233.690292
 30
0.0
 10
109.076342
 20
233.967362
 30
0.0
  0
SPLINE
  5
2e6
100
AcDbEntity
  8
0
 62
7
100
AcDbSpline
 70
8
 71
3
 72
8
 73
4
 74
0
 40
0
 40
0
 40
0
 40
0
 40
1
 40
1
 40
1
 40
1
 10
109.076342
 20
233.967362
 30
0.0
 10
109.076144
 20
234.244432
 30
0.0
 10
109.223846
 20
234.500540
 30
0.0
 10
109.463762
 20
234.639132
 30
0.0
  0
SPLINE
  5
2e7
100
AcDbEntity
  8
0
 62
7
100
AcDbSpline
 70
8
 71
3
 72
8
 73
4
 74
0
 40
0
 40
0
 40
0
 40
0
 40
1
 40
1
 40
1
 40
1
 10
109.463762
 20
234.639132
 30
0.0
 10
109.703679
 20
234.777724
 30
0.0
 10
109.999326
 20
234.777724
 30
0.0
 10
110.239243
 20
234.639132
 30
0.0
  0
SPLINE
  5
2e8
100
AcDbEntity
  8
0
 62
7
100
AcDbSpline
 70
8
 71
3
 72
8
 73
4
 74
0
 40
0
 40
0
 40
0
 40
0
 40
1
 40
1
 40
1
 40
1
 10
110.239243
 20
234.639132
 30
0.0
 10
110.479160
 20
234.500540
 30
0.0
 10
110.626861
 20
234.244432
 30
0.0
 10
110.626664
 20
233.967362
 30
0.0
  0
LWPOLYLINE
  5
2e9
100
AcDbEntity
  8
0
 62
7
100
AcDbPolyline
 90
2
 70
1
 10
109.013200
 20
226.504418
 30
0.0
 10
109.013200
 20
226.504418
 30
0.0
  0
SPLINE
  5
2ea
100
AcDbEntity
  8
0
 62
7
100
AcDbSpline
 70
8
 71
3
 72
8
 73
4
 74
0
 40
0
 40
0
 40
0
 40
0
 40
1
 40
1
 40
1
 40
1
 10
119.616315
 20
233.967353
 30
0.0
 10
119.616631
 20
233.693902
 30
0.0
 10
119.470927
 20
233.441088
 30
0.0
 10
119.234164
 20
233.304272
 30
0.0
  0
SPLINE
  5
2eb
100
AcDbEntity
  8
0
 62
7
100
AcDbSpline
 70
8
 71
3
 72
8
 73
4
 74
0
 40
0
 40
0
 40
0
 40
0
 40
1
 40
1
 40
1
 40
1
 10
119.234164
 20
233.304272
 30
0.0
 10
118.997401
 20
233.167455
 30
0.0
 10
118.705606
 20
233.167455
 30
0.0
 10
118.468843
 20
233.304272
 30
0.0
  0
SPLINE
  5
2ec
100
AcDbEntity
  8
0
 62
7
100
AcDbSpline
 70
8
 71
3
 72
8
 73
4
 74
0
 40
0
 40
0
 40
0
 40
0
 40
1
 40
1
 40
1
 40
1
 10
118.468843
 20
233.304272
 30
0.0
 10
118.232080
 20
233.441088
 30
0.0
 10
118.086377
 20
233.693902
 30
0.0
 10
118.086692
 20
233.967353
 30
0.0
  0
SPLINE
  5
2ed
100
AcDbEntity
  8
0
 62
7
100
AcDbSpline
 70
8
 71
3
 72
8
 73
4
 74
0
 40
0
 40
0
 40
0
 40
0
 40
1
 40
1
 40
1
 40
1
 10
118.086692
 20
233.967353
 30
0.0
 10
118.086377
 20
234.240804
 30
0.0
 10
118.232080
 20
234.493618
 30
0.0
 10
118.468843
 20
234.630435
 30
0.0
  0
SPLINE
  5
2ee
100
AcDbEntity
  8
0
 62
7
100
AcDbSpline
 70
8
 71
3
 72
8
 73
4
 74
0
 40
0
 40
0
 40
0
 40
0
 40
1
 40
1
 40
1
 40
1
 10
118.468843
 20
234.630435
 30
0.0
 10
118.705606
 20
234.767251
 30
0.0
 10
118.997401
 20
234.767251
 30
0.0
 10
119.234164
 20
234.630435
 30
0.0
  0
SPLINE
  5
2ef
100
AcDbEntity
  8
0
 62
7
100
AcDbSpline
 70
8
 71
3
 72
8
 73
4
 74
0
 40
0
 40
0
 40
0
 40
0
 40
1
 40
1
 40
1
 40
1
 10
119.234164
 20
234.630435
 30
0.0
 10
119.470927
 20
234.493618
 30
0.0
 10
119.616631
 20
234.240804
 30
0.0
 10
119.616315
 20
233.967353
 30
0.0
  0
LWPOLYLINE
  5
2f0
100
AcDbEntity
  8
0
 62
7
100
AcDbPolyline
 90
2
 70
1
 10
110.626664
 20
233.967362
 30
0.0
 10
110.626664
 20
233.967362
 30
0.0
  0
SPLINE
  5
2f1
100
AcDbEntity
  8
0
 62
1
100
AcDbSpline
 70
8
 71
3
 72
8
 73
4
 74
0
 40
0
 40
0
 40
0
 40
0
 40
1
 40
1
 40
1
 40
1
 10
113.951502
 20
145.250002
 30
0.0
 10
108.681041
 20
145.250002
 30
0.0
 10
103.227125
 20
153.331695
 30
0.0
 10
98.951503
 20
150.250003
 30
0.0
  0
SPLINE
  5
2f2
100
AcDbEntity
  8
0
 62
1
100
AcDbSpline
 70
8
 71
3
 72
8
 73
4
 74
0
 40
0
 40
0
 40
0
 40
0
 40
1
 40
1
 40
1
 40
1
 10
98.951503
 20
150.250003
 30
0.0
 10
90.839081
 20
144.402901
 30
0.0
 10
98.453367
 20
130.237589
 30
0.0
 10
98.951503
 20
120.250001
 30
0.0
  0
SPLINE
  5
2f3
100
AcDbEntity
  8
0
 62
1
100
AcDbSpline
 70
8
 71
3
 72
8
 73
4
 74
0
 40
0
 40
0
 40
0
 40
0
 40
1
 40
1
 40
1
 40
1
 10
98.951503
 20
120.250001
 30
0.0
 10
99.610614
 20
107.034906
 30
0.0
 10
102.348508
 20
83.497214
 30
0.0
 10
103.469610
 20
74.192150
 30
0.0
  0
SPLINE
  5
2f4
100
AcDbEntity
  8
0
 62
1
100
AcDbSpline
 70
8
 71
3
 72
8
 73
4
 74
0
 40
0
 40
0
 40
0
 40
0
 40
1
 40
1
 40
1
 40
1
 10
103.469610
 20
74.192150
 30
0.0
 10
103.767713
 20
71.717930
 30
0.0
 10
105.203304
 20
70.680724
 30
0.0
 10
103.951502
 20
70.250000
 30
0.0
  0
SPLINE
  5
2f5
100
AcDbEntity
  8
0
 62
1
100
AcDbSpline
 70
8
 71
3
 72
8
 73
4
 74
0
 40
0
 40
0
 40
0
 40
0
 40
1
 40
1
 40
1
 40
1
 10
103.951502
 20
70.250000
 30
0.0
 10
102.843461
 20
69.868740
 30
0.0
 10
103.183987
 20
71.854975
 30
0.0
 10
102.140634
 20
73.263100
 30
0.0
  0
SPLINE
  5
2f6
100
AcDbEntity
  8
0
 62
1
100
AcDbSpline
 70
8
 71
3
 72
8
 73
4
 74
0
 40
0
 40
0
 40
0
 40
0
 40
1
 40
1
 40
1
 40
1
 10
102.140634
 20
73.263100
 30
0.0
 10
101.183218
 20
74.555243
 30
0.0
 10
99.993536
 20
75.681626
 30
0.0
 10
98.951501
 20
75.250001
 30
0.0
  0
SPLINE
  5
2f7
100
AcDbEntity
  8
0
 62
1
100
AcDbSpline
 70
8
 71
3
 72
8
 73
4
 74
0
 40
0
 40
0
 40
0
 40
0
 40
1
 40
1
 40
1
 40
1
 10
98.951501
 20
75.250001
 30
0.0
 10
94.332104
 20
73.336585
 30
0.0
 10
94.332101
 20
62.163413
 30
0.0
 10
98.951503
 20
60.250000
 30
0.0
  0
SPLINE
  5
2f8
100
AcDbEntity
  8
0
 62
1
100
AcDbSpline
 70
8
 71
3
 72
8
 73
4
 74
0
 40
0
 40
0
 40
0
 40
0
 40
1
 40
1
 40
1
 40
1
 10
98.951503
 20
60.250000
 30
0.0
 10
100.247358
 20
59.713241
 30
0.0
 10
101.771547
 20
61.585930
 30
0.0
 10
102.793423
 20
63.190504
 30
0.0
  0
SPLINE
  5
2f9
100
AcDbEntity
  8
0
 62
1
100
AcDbSpline
 70
8
 71
3
 72
8
 73
4
 74
0
 40
0
 40
0
 40
0
 40
0
 40
1
 40
1
 40
1
 40
1
 10
102.793423
 20
63.190504
 30
0.0
 10
103.488748
 20
64.282320
 30
0.0
 10
103.167483
 20
65.324903
 30
0.0
 10
103.951502
 20
65.250001
 30
0.0
  0
SPLINE
  5
2fa
100
AcDbEntity
  8
0
 62
1
100
AcDbSpline
 70
8
 71
3
 72
8
 73
4
 74
0
 40
0
 40
0
 40
0
 40
0
 40
1
 40
1
 40
1
 40
1
 10
103.951502
 20
65.250001
 30
0.0
 10
104.670034
 20
65.181353
 30
0.0
 10
104.636263
 20
63.195714
 30
0.0
 10
104.636263
 20
63.195714
 30
0.0
  0
LWPOLYLINE
  5
2fb
100
AcDbEntity
  8
0
 62
7
100
AcDbPolyline
 90
2
 70
1
 10
119.616315
 20
233.967353
 30
0.0
 10
119.616315
 20
233.967353
 30
0.0
  0
SPLINE
  5
2fc
100
AcDbEntity
  8
0
 62
1
100
AcDbSpline
 70
8
 71
3
 72
8
 73
4
 74
0
 40
0
 40
0
 40
0
 40
0
 40
1
 40
1
 40
1
 40
1
 10
108.309086
 20
52.177253
 30
0.0
 10
108.970086
 20
51.032368
 30
0.0
 10
108.605149
 20
50.250003
 30
0.0
 10
108.111937
 20
50.250003
 30
0.0
  0
LWPOLYLINE
  5
2fd
100
AcDbEntity
  8
0
 62
1
100
AcDbPolyline
 90
2
 70
1
 10
104.636263
 20
63.195714
 30
0.0
 10
108.309086
 20
52.177253
 30
0.0
  0
SPLINE
  5
2fe
100
AcDbEntity
  8
0
 62
1
100
AcDbSpline
 70
8
 71
3
 72
8
 73
4
 74
0
 40
0
 40
0
 40
0
 40
0
 40
1
 40
1
 40
1
 40
1
 10
93.951502
 20
50.250003
 30
0.0
 10
93.951502
 20
50.250003
 30
0.0
 10
92.036895
 20
33.360411
 30
0.0
 10
93.951502
 20
25.250002
 30
0.0
  0
SPLINE
  5
2ff
100
AcDbEntity
  8
0
 62
1
100
AcDbSpline
 70
8
 71
3
 72
8
 73
4
 74
0
 40
0
 40
0
 40
0
 40
0
 40
1
 40
1
 40
1
 40
1
 10
93.951502
 20
25.250002
 30
0.0
 10
94.807742
 20
21.622919
 30
0.0
 10
95.272847
 20
15.846967
 30
0.0
 10
98.951503
 20
15.250002
 30
0.0
  0
SPLINE
  5
300
100
AcDbEntity
  8
0
 62
1
100
AcDbSpline
 70
8
 71
3
 72
8
 73
4
 74
0
 40
0
 40
0
 40
0
 40
0
 40
1
 40
1
 40
1
 40
1
 10
98.951503
 20
15.250002
 30
0.0
 10
100.304776
 20
15.030397
 30
0.0
 10
101.775391
 20
16.757882
 30
0.0
 10
102.768996
 20
18.241679
 30
0.0
  0
SPLINE
  5
301
100
AcDbEntity
  8
0
 62
1
100
AcDbSpline
 70
8
 71
3
 72
8
 73
4
 74
0
 40
0
 40
0
 40
0
 40
0
 40
1
 40
1
 40
1
 40
1
 10
102.768996
 20
18.241679
 30
0.0
 10
103.483625
 20
19.308869
 30
0.0
 10
103.201973
 20
20.454276
 30
0.0
 10
103.951502
 20
20.250004
 30
0.0
  0
SPLINE
  5
302
100
AcDbEntity
  8
0
 62
1
100
AcDbSpline
 70
8
 71
3
 72
8
 73
4
 74
0
 40
0
 40
0
 40
0
 40
0
 40
1
 40
1
 40
1
 40
1
 10
103.951502
 20
20.250004
 30
0.0
 10
107.167537
 20
19.373523
 30
0.0
 10
105.703941
 20
13.085505
 30
0.0
 10
103.951502
 20
10.250004
 30
0.0
  0
SPLINE
  5
303
100
AcDbEntity
  8
0
 62
1
100
AcDbSpline
 70
8
 71
3
 72
8
 73
4
 74
0
 40
0
 40
0
 40
0
 40
0
 40
1
 40
1
 40
1
 40
1
 10
103.951502
 20
10.250004
 30
0.0
 10
101.992219
 20
7.079813
 30
0.0
 10
95.910788
 20
8.420191
 30
0.0
 10
93.951502
 20
5.250003
 30
0.0
  0
SPLINE
  5
304
100
AcDbEntity
  8
0
 62
1
100
AcDbSpline
 70
8
 71
3
 72
8
 73
4
 74
0
 40
0
 40
0
 40
0
 40
0
 40
1
 40
1
 40
1
 40
1
 10
93.951502
 20
5.250003
 30
0.0
 10
93.075284
 20
3.832251
 30
0.0
 10
93.951502
 20
0.250001
 30
0.0
 10
93.951502
 20
0.250001
 30
0.0
  0
LWPOLYLINE
  5
305
100
AcDbEntity
  8
0
 62
1
100
AcDbPolyline
 90
3
 70
1
 10
108.111937
 20
50.250003
 30
0.0
 10
106.113699
 20
50.250003
 30
0.0
 10
93.951502
 20
50.250003
 30
0.0
  0
SPLINE
  5
306
100
AcDbEntity
  8
0
 62
1
100
AcDbSpline
 70
8
 71
3
 72
8
 73
4
 74
0
 40
0
 40
0
 40
0
 40
0
 40
1
 40
1
 40
1
 40
1
 10
133.951504
 20
0.250001
 30
0.0
 10
133.951504
 20
0.250001
 30
0.0
 10
134.827722
 20
3.832251
 30
0.0
 10
133.951504
 20
5.250003
 30
0.0
  0
SPLINE
  5
307
100
AcDbEntity
  8
0
 62
1
100
AcDbSpline
 70
8
 71
3
 72
8
 73
4
 74
0
 40
0
 40
0
 40
0
 40
0
 40
1
 40
1
 40
1
 40
1
 10
133.951504
 20
5.250003
 30
0.0
 10
131.992218
 20
8.420191
 30
0.0
 10
125.910787
 20
7.079813
 30
0.0
 10
123.951504
 20
10.250004
 30
0.0
  0
SPLINE
  5
308
100
AcDbEntity
  8
0
 62
1
100
AcDbSpline
 70
8
 71
3
 72
8
 73
4
 74
0
 40
0
 40
0
 40
0
 40
0
 40
1
 40
1
 40
1
 40
1
 10
123.951504
 20
10.250004
 30
0.0
 10
122.199065
 20
13.085505
 30
0.0
 10
120.735303
 20
19.374130
 30
0.0
 10
123.951504
 20
20.250004
 30
0.0
  0
SPLINE
  5
309
100
AcDbEntity
  8
0
 62
1
100
AcDbSpline
 70
8
 71
3
 72
8
 73
4
 74
0
 40
0
 40
0
 40
0
 40
0
 40
1
 40
1
 40
1
 40
1
 10
123.951504
 20
20.250004
 30
0.0
 10
124.696176
 20
20.452800
 30
0.0
 10
124.415684
 20
19.316308
 30
0.0
 10
125.125535
 20
18.254351
 30
0.0
  0
SPLINE
  5
30a
100
AcDbEntity
  8
0
 62
1
100
AcDbSpline
 70
8
 71
3
 72
8
 73
4
 74
0
 40
0
 40
0
 40
0
 40
0
 40
1
 40
1
 40
1
 40
1
 10
125.125535
 20
18.254351
 30
0.0
 10
126.119239
 20
16.767737
 30
0.0
 10
127.594375
 20
15.029770
 30
0.0
 10
128.951503
 20
15.250002
 30
0.0
  0
SPLINE
  5
30b
100
AcDbEntity
  8
0
 62
1
100
AcDbSpline
 70
8
 71
3
 72
8
 73
4
 74
0
 40
0
 40
0
 40
0
 40
0
 40
1
 40
1
 40
1
 40
1
 10
128.951503
 20
15.250002
 30
0.0
 10
132.630159
 20
15.846967
 30
0.0
 10
133.095264
 20
21.622919
 30
0.0
 10
133.951504
 20
25.250002
 30
0.0
  0
SPLINE
  5
30c
100
AcDbEntity
  8
0
 62
1
100
AcDbSpline
 70
8
 71
3
 72
8
 73
4
 74
0
 40
0
 40
0
 40
0
 40
0
 40
1
 40
1
 40
1
 40
1
 10
133.951504
 20
25.250002
 30
0.0
 10
135.866111
 20
33.360411
 30
0.0
 10
133.951504
 20
50.250003
 30
0.0
 10
133.951504
 20
50.250003
 30
0.0
  0
LWPOLYLINE
  5
30d
100
AcDbEntity
  8
0
 62
1
100
AcDbPolyline
 90
2
 70
1
 10
93.951502
 20
0.250001
 30
0.0
 10
133.951504
 20
0.250001
 30
0.0
  0
SPLINE
  5
30e
100
AcDbEntity
  8
0
 62
1
100
AcDbSpline
 70
8
 71
3
 72
8
 73
4
 74
0
 40
0
 40
0
 40
0
 40
0
 40
1
 40
1
 40
1
 40
1
 10
120.045086
 20
50.250003
 30
0.0
 10
120.045086
 20
50.250003
 30
0.0
 10
119.207435
 20
51.017800
 30
0.0
 10
119.610878
 20
52.228129
 30
0.0
  0
LWPOLYLINE
  5
30f
100
AcDbEntity
  8
0
 62
1
100
AcDbPolyline
 90
3
 70
1
 10
133.951504
 20
50.250003
 30
0.0
 10
122.099613
 20
50.250003
 30
0.0
 10
120.045086
 20
50.250003
 30
0.0
  0
SPLINE
  5
310
100
AcDbEntity
  8
0
 62
1
100
AcDbSpline
 70
8
 71
3
 72
8
 73
4
 74
0
 40
0
 40
0
 40
0
 40
0
 40
1
 40
1
 40
1
 40
1
 10
123.255555
 20
63.162155
 30
0.0
 10
123.255555
 20
63.162155
 30
0.0
 10
123.221234
 20
65.180230
 30
0.0
 10
123.951504
 20
65.250001
 30
0.0
  0
SPLINE
  5
311
100
AcDbEntity
  8
0
 62
1
100
AcDbSpline
 70
8
 71
3
 72
8
 73
4
 74
0
 40
0
 40
0
 40
0
 40
0
 40
1
 40
1
 40
1
 40
1
 10
123.951504
 20
65.250001
 30
0.0
 10
124.735650
 20
65.324920
 30
0.0
 10
124.414351
 20
64.282128
 30
0.0
 10
125.109789
 20
63.190180
 30
0.0
  0
SPLINE
  5
312
100
AcDbEntity
  8
0
 62
1
100
AcDbSpline
 70
8
 71
3
 72
8
 73
4
 74
0
 40
0
 40
0
 40
0
 40
0
 40
1
 40
1
 40
1
 40
1
 10
125.109789
 20
63.190180
 30
0.0
 10
126.131665
 20
61.585676
 30
0.0
 10
127.655736
 20
59.713278
 30
0.0
 10
128.951503
 20
60.250000
 30
0.0
  0
SPLINE
  5
313
100
AcDbEntity
  8
0
 62
1
100
AcDbSpline
 70
8
 71
3
 72
8
 73
4
 74
0
 40
0
 40
0
 40
0
 40
0
 40
1
 40
1
 40
1
 40
1
 10
128.951503
 20
60.250000
 30
0.0
 10
133.570902
 20
62.163410
 30
0.0
 10
133.570899
 20
73.336585
 30
0.0
 10
128.951503
 20
75.250001
 30
0.0
  0
SPLINE
  5
314
100
AcDbEntity
  8
0
 62
1
100
AcDbSpline
 70
8
 71
3
 72
8
 73
4
 74
0
 40
0
 40
0
 40
0
 40
0
 40
1
 40
1
 40
1
 40
1
 10
128.951503
 20
75.250001
 30
0.0
 10
127.627251
 20
75.798525
 30
0.0
 10
126.064547
 20
73.830841
 30
0.0
 10
125.043134
 20
72.204425
 30
0.0
  0
SPLINE
  5
315
100
AcDbEntity
  8
0
 62
1
100
AcDbSpline
 70
8
 71
3
 72
8
 73
4
 74
0
 40
0
 40
0
 40
0
 40
0
 40
1
 40
1
 40
1
 40
1
 10
125.043134
 20
72.204425
 30
0.0
 10
124.384933
 20
71.156353
 30
0.0
 10
124.660765
 20
70.018106
 30
0.0
 10
123.951504
 20
70.250000
 30
0.0
  0
SPLINE
  5
316
100
AcDbEntity
  8
0
 62
1
100
AcDbSpline
 70
8
 71
3
 72
8
 73
4
 74
0
 40
0
 40
0
 40
0
 40
0
 40
1
 40
1
 40
1
 40
1
 10
123.951504
 20
70.250000
 30
0.0
 10
123.329201
 20
70.453462
 30
0.0
 10
124.039213
 20
70.950534
 30
0.0
 10
124.191726
 20
72.199410
 30
0.0
  0
SPLINE
  5
317
100
AcDbEntity
  8
0
 62
1
100
AcDbSpline
 70
8
 71
3
 72
8
 73
4
 74
0
 40
0
 40
0
 40
0
 40
0
 40
1
 40
1
 40
1
 40
1
 10
124.191726
 20
72.199410
 30
0.0
 10
125.090268
 20
79.557259
 30
0.0
 10
128.238206
 20
105.948458
 30
0.0
 10
128.951503
 20
120.250001
 30
0.0
  0
SPLINE
  5
318
100
AcDbEntity
  8
0
 62
1
100
AcDbSpline
 70
8
 71
3
 72
8
 73
4
 74
0
 40
0
 40
0
 40
0
 40
0
 40
1
 40
1
 40
1
 40
1
 10
128.951503
 20
120.250001
 30
0.0
 10
129.449639
 20
130.237589
 30
0.0
 10
137.063924
 20
144.402901
 30
0.0
 10
128.951503
 20
150.250003
 30
0.0
  0
SPLINE
  5
319
100
AcDbEntity
  8
0
 62
1
100
AcDbSpline
 70
8
 71
3
 72
8
 73
4
 74
0
 40
0
 40
0
 40
0
 40
0
 40
1
 40
1
 40
1
 40
1
 10
128.951503
 20
150.250003
 30
0.0
 10
124.675881
 20
153.331695
 30
0.0
 10
119.221965
 20
145.250002
 30
0.0
 10
113.951502
 20
145.250002
 30
0.0
  0
LWPOLYLINE
  5
31a
100
AcDbEntity
  8
0
 62
1
100
AcDbPolyline
 90
2
 70
1
 10
119.610878
 20
52.228129
 30
0.0
 10
123.255555
 20
63.162155
 30
0.0
  0
LWPOLYLINE
  5
31b
100
AcDbEntity
  8
0
 62
1
100
AcDbPolyline
 90
2
 70
1
 10
113.951502
 20
145.250002
 30
0.0
 10
113.951502
 20
145.250002
 30
0.0
  0
LWPOLYLINE
  5
31c
100
AcDbEntity
  8
0
 62
7
100
AcDbPolyline
 90
2
 70
0
 10
93.951502
 20
40.249983
 30
0.0
 10
133.951504
 20
40.249983
 30
0.0
  0
LWPOLYLINE
  5
31d
100
AcDbEntity
  8
0
 62
7
100
AcDbPolyline
 90
2
 70
0
 10
93.951502
 20
30.250003
 30
0.0
 10
133.951504
 20
30.250003
 30
0.0
  0
SPLINE
  5
31e
100
AcDbEntity
  8
0
 62
7
100
AcDbSpline
 70
8
 71
3
 72
8
 73
4
 74
0
 40
0
 40
0
 40
0
 40
0
 40
1
 40
1
 40
1
 40
1
 10
111.811219
 20
67.749996
 30
0.0
 10
111.811404
 20
67.264146
 30
0.0
 10
111.361685
 20
66.815156
 30
0.0
 10
110.631510
 20
66.572200
 30
0.0
  0
SPLINE
  5
31f
100
AcDbEntity
  8
0
 62
7
100
AcDbSpline
 70
8
 71
3
 72
8
 73
4
 74
0
 40
0
 40
0
 40
0
 40
0
 40
1
 40
1
 40
1
 40
1
 10
110.631510
 20
66.572200
 30
0.0
 10
109.901336
 20
66.329244
 30
0.0
 10
109.001671
 20
66.329244
 30
0.0
 10
108.271497
 20
66.572200
 30
0.0
  0
SPLINE
  5
320
100
AcDbEntity
  8
0
 62
7
100
AcDbSpline
 70
8
 71
3
 72
8
 73
4
 74
0
 40
0
 40
0
 40
0
 40
0
 40
1
 40
1
 40
1
 40
1
 10
108.271497
 20
66.572200
 30
0.0
 10
107.541322
 20
66.815156
 30
0.0
 10
107.091603
 20
67.264146
 30
0.0
 10
107.091788
 20
67.749996
 30
0.0
  0
SPLINE
  5
321
100
AcDbEntity
  8
0
 62
7
100
AcDbSpline
 70
8
 71
3
 72
8
 73
4
 74
0
 40
0
 40
0
 40
0
 40
0
 40
1
 40
1
 40
1
 40
1
 10
107.091788
 20
67.749996
 30
0.0
 10
107.091603
 20
68.235847
 30
0.0
 10
107.541322
 20
68.684836
 30
0.0
 10
108.271497
 20
68.927792
 30
0.0
  0
SPLINE
  5
322
100
AcDbEntity
  8
0
 62
7
100
AcDbSpline
 70
8
 71
3
 72
8
 73
4
 74
0
 40
0
 40
0
 40
0
 40
0
 40
1
 40
1
 40
1
 40
1
 10
108.271497
 20
68.927792
 30
0.0
 10
109.001671
 20
69.170748
 30
0.0
 10
109.901336
 20
69.170748
 30
0.0
 10
110.631510
 20
68.927792
 30
0.0
  0
SPLINE
  5
323
100
AcDbEntity
  8
0
 62
7
100
AcDbSpline
 70
8
 71
3
 72
8
 73
4
 74
0
 40
0
 40
0
 40
0
 40
0
 40
1
 40
1
 40
1
 40
1
 10
110.631510
 20
68.927792
 30
0.0
 10
111.361685
 20
68.684836
 30
0.0
 10
111.811404
 20
68.235847
 30
0.0
 10
111.811219
 20
67.749996
 30
0.0
  0
LWPOLYLINE
  5
324
100
AcDbEntity
  8
0
 62
7
100
AcDbPolyline
 90
2
 70
0
 10
105.082927
 20
20.252369
 30
0.0
 10
123.082926
 20
20.252369
 30
0.0
  0
SPLINE
  5
325
100
AcDbEntity
  8
0
 62
7
100
AcDbSpline
 70
8
 71
3
 72
8
 73
4
 74
0
 40
0
 40
0
 40
0
 40
0
 40
1
 40
1
 40
1
 40
1
 10
120.804807
 20
67.749973
 30
0.0
 10
120.805277
 20
67.266304
 30
0.0
 10
120.356842
 20
66.819260
 30
0.0
 10
119.628534
 20
66.577347
 30
0.0
  0
SPLINE
  5
326
100
AcDbEntity
  8
0
 62
7
100
AcDbSpline
 70
8
 71
3
 72
8
 73
4
 74
0
 40
0
 40
0
 40
0
 40
0
 40
1
 40
1
 40
1
 40
1
 10
119.628534
 20
66.577347
 30
0.0
 10
118.900226
 20
66.335435
 30
0.0
 10
118.002779
 20
66.335435
 30
0.0
 10
117.274471
 20
66.577347
 30
0.0
  0
SPLINE
  5
327
100
AcDbEntity
  8
0
 62
7
100
AcDbSpline
 70
8
 71
3
 72
8
 73
4
 74
0
 40
0
 40
0
 40
0
 40
0
 40
1
 40
1
 40
1
 40
1
 10
117.274471
 20
66.577347
 30
0.0
 10
116.546163
 20
66.819260
 30
0.0
 10
116.097728
 20
67.266304
 30
0.0
 10
116.098198
 20
67.749973
 30
0.0
  0
SPLINE
  5
328
100
AcDbEntity
  8
0
 62
7
100
AcDbSpline
 70
8
 71
3
 72
8
 73
4
 74
0
 40
0
 40
0
 40
0
 40
0
 40
1
 40
1
 40
1
 40
1
 10
116.098198
 20
67.749973
 30
0.0
 10
116.097728
 20
68.233643
 30
0.0
 10
116.546163
 20
68.680687
 30
0.0
 10
117.274471
 20
68.922600
 30
0.0
  0
SPLINE
  5
329
100
AcDbEntity
  8
0
 62
7
100
AcDbSpline
 70
8
 71
3
 72
8
 73
4
 74
0
 40
0
 40
0
 40
0
 40
0
 40
1
 40
1
 40
1
 40
1
 10
117.274471
 20
68.922600
 30
0.0
 10
118.002779
 20
69.164512
 30
0.0
 10
118.900226
 20
69.164512
 30
0.0
 10
119.628534
 20
68.922600
 30
0.0
  0
SPLINE
  5
32a
100
AcDbEntity
  8
0
 62
7
100
AcDbSpline
 70
8
 71
3
 72
8
 73
4
 74
0
 40
0
 40
0
 40
0
 40
0
 40
1
 40
1
 40
1
 40
1
 10
119.628534
 20
68.922600
 30
0.0
 10
120.356842
 20
68.680687
 30
0.0
 10
120.805277
 20
68.233643
 30
0.0
 10
120.804807
 20
67.749973
 30
0.0
  0
LWPOLYLINE
  5
32b
100
AcDbEntity
  8
0
 62
7
100
AcDbPolyline
 90
2
 70
1
 10
111.811219
 20
67.749996
 30
0.0
 10
111.811219
 20
67.749996
 30
0.0
  0
SPLINE
  5
32c
100
AcDbEntity
  8
0
 62
7
100
AcDbSpline
 70
8
 71
3
 72
8
 73
4
 74
0
 40
0
 40
0
 40
0
 40
0
 40
1
 40
1
 40
1
 40
1
 10
109.013200
 20
60.187064
 30
0.0
 10
109.013200
 20
60.187064
 30
0.0
 10
111.996754
 20
57.174906
 30
0.0
 10
113.918530
 20
57.157296
 30
0.0
  0
SPLINE
  5
32d
100
AcDbEntity
  8
0
 62
7
100
AcDbSpline
 70
8
 71
3
 72
8
 73
4
 74
0
 40
0
 40
0
 40
0
 40
0
 40
1
 40
1
 40
1
 40
1
 10
113.918530
 20
57.157296
 30
0.0
 10
115.930895
 20
57.138951
 30
0.0
 10
119.112406
 20
60.235155
 30
0.0
 10
119.112406
 20
60.235155
 30
0.0
  0
SPLINE
  5
32e
100
AcDbEntity
  8
0
 62
7
100
AcDbSpline
 70
8
 71
3
 72
8
 73
4
 74
0
 40
0
 40
0
 40
0
 40
0
 40
1
 40
1
 40
1
 40
1
 10
119.112406
 20
60.235155
 30
0.0
 10
119.112406
 20
60.235155
 30
0.0
 10
115.708713
 20
59.323803
 30
0.0
 10
113.966620
 20
59.321432
 30
0.0
  0
SPLINE
  5
32f
100
AcDbEntity
  8
0
 62
7
100
AcDbSpline
 70
8
 71
3
 72
8
 73
4
 74
0
 40
0
 40
0
 40
0
 40
0
 40
1
 40
1
 40
1
 40
1
 10
113.966620
 20
59.321432
 30
0.0
 10
112.290460
 20
59.318610
 30
0.0
 10
109.013200
 20
60.187064
 30
0.0
 10
109.013200
 20
60.187064
 30
0.0
  0
LWPOLYLINE
  5
330
100
AcDbEntity
  8
0
 62
7
100
AcDbPolyline
 90
2
 70
1
 10
120.804807
 20
67.749973
 30
0.0
 10
120.804807
 20
67.749973
 30
0.0
  0
SPLINE
  5
331
100
AcDbEntity
  8
0
 62
7
100
AcDbSpline
 70
8
 71
3
 72
8
 73
4
 74
0
 40
0
 40
0
 40
0
 40
0
 40
1
 40
1
 40
1
 40
1
 10
112.956315
 20
66.969530
 30
0.0
 10
112.956315
 20
66.969530
 30
0.0
 10
114.633441
 20
65.525797
 30
0.0
 10
115.220497
 20
64.698104
 30
0.0
  0
SPLINE
  5
332
100
AcDbEntity
  8
0
 62
7
100
AcDbSpline
 70
8
 71
3
 72
8
 73
4
 74
0
 40
0
 40
0
 40
0
 40
0
 40
1
 40
1
 40
1
 40
1
 10
115.220497
 20
64.698104
 30
0.0
 10
115.807547
 20
63.870411
 30
0.0
 10
116.439674
 20
62.058367
 30
0.0
 10
116.439674
 20
62.058367
 30
0.0
  0
SPLINE
  5
333
100
AcDbEntity
  8
0
 62
7
100
AcDbSpline
 70
8
 71
3
 72
8
 73
4
 74
0
 40
0
 40
0
 40
0
 40
0
 40
1
 40
1
 40
1
 40
1
 10
116.439674
 20
62.058367
 30
0.0
 10
116.439674
 20
62.058367
 30
0.0
 10
115.424995
 20
61.813542
 30
0.0
 10
114.959247
 20
61.935578
 30
0.0
  0
SPLINE
  5
334
100
AcDbEntity
  8
0
 62
7
100
AcDbSpline
 70
8
 71
3
 72
8
 73
4
 74
0
 40
0
 40
0
 40
0
 40
0
 40
1
 40
1
 40
1
 40
1
 10
114.959247
 20
61.935578
 30
0.0
 10
114.516313
 20
62.051658
 30
0.0
 10
114.473771
 20
62.678878
 30
0.0
 10
114.001325
 20
62.672254
 30
0.0
  0
SPLINE
  5
335
100
AcDbEntity
  8
0
 62
7
100
AcDbSpline
 70
8
 71
3
 72
8
 73
4
 74
0
 40
0
 40
0
 40
0
 40
0
 40
1
 40
1
 40
1
 40
1
 10
114.001325
 20
62.672254
 30
0.0
 10
113.507092
 20
62.665255
 30
0.0
 10
113.043398
 20
61.874211
 30
0.0
 10
113.043398
 20
61.874211
 30
0.0
  0
SPLINE
  5
336
100
AcDbEntity
  8
0
 62
7
100
AcDbSpline
 70
8
 71
3
 72
8
 73
4
 74
0
 40
0
 40
0
 40
0
 40
0
 40
1
 40
1
 40
1
 40
1
 10
110.626664
 20
67.650008
 30
0.0
 10
110.626861
 20
67.372937
 30
0.0
 10
110.479160
 20
67.116829
 30
0.0
 10
110.239243
 20
66.978237
 30
0.0
  0
SPLINE
  5
337
100
AcDbEntity
  8
0
 62
7
100
AcDbSpline
 70
8
 71
3
 72
8
 73
4
 74
0
 40
0
 40
0
 40
0
 40
0
 40
1
 40
1
 40
1
 40
1
 10
110.239243
 20
66.978237
 30
0.0
 10
109.999326
 20
66.839645
 30
0.0
 10
109.703679
 20
66.839645
 30
0.0
 10
109.463762
 20
66.978237
 30
0.0
  0
SPLINE
  5
338
100
AcDbEntity
  8
0
 62
7
100
AcDbSpline
 70
8
 71
3
 72
8
 73
4
 74
0
 40
0
 40
0
 40
0
 40
0
 40
1
 40
1
 40
1
 40
1
 10
109.463762
 20
66.978237
 30
0.0
 10
109.223846
 20
67.116829
 30
0.0
 10
109.076144
 20
67.372937
 30
0.0
 10
109.076342
 20
67.650008
 30
0.0
  0
SPLINE
  5
339
100
AcDbEntity
  8
0
 62
7
100
AcDbSpline
 70
8
 71
3
 72
8
 73
4
 74
0
 40
0
 40
0
 40
0
 40
0
 40
1
 40
1
 40
1
 40
1
 10
109.076342
 20
67.650008
 30
0.0
 10
109.076144
 20
67.927078
 30
0.0
 10
109.223846
 20
68.183186
 30
0.0
 10
109.463762
 20
68.321778
 30
0.0
  0
SPLINE
  5
33a
100
AcDbEntity
  8
0
 62
7
100
AcDbSpline
 70
8
 71
3
 72
8
 73
4
 74
0
 40
0
 40
0
 40
0
 40
0
 40
1
 40
1
 40
1
 40
1
 10
109.463762
 20
68.321778
 30
0.0
 10
109.703679
 20
68.460370
 30
0.0
 10
109.999326
 20
68.460370
 30
0.0
 10
110.239243
 20
68.321778
 30
0.0
  0
SPLINE
  5
33b
100
AcDbEntity
  8
0
 62
7
100
AcDbSpline
 70
8
 71
3
 72
8
 73
4
 74
0
 40
0
 40
0
 40
0
 40
0
 40
1
 40
1
 40
1
 40
1
 10
110.239243
 20
68.321778
 30
0.0
 10
110.479160
 20
68.183186
 30
0.0
 10
110.626861
 20
67.927078
 30
0.0
 10
110.626664
 20
67.650008
 30
0.0
  0
LWPOLYLINE
  5
33c
100
AcDbEntity
  8
0
 62
7
100
AcDbPolyline
 90
2
 70
1
 10
109.013200
 20
60.187064
 30
0.0
 10
109.013200
 20
60.187064
 30
0.0
  0
SPLINE
  5
33d
100
AcDbEntity
  8
0
 62
7
100
AcDbSpline
 70
8
 71
3
 72
8
 73
4
 74
0
 40
0
 40
0
 40
0
 40
0
 40
1
 40
1
 40
1
 40
1
 10
119.616315
 20
67.649999
 30
0.0
 10
119.616631
 20
67.376548
 30
0.0
 10
119.470927
 20
67.123734
 30
0.0
 10
119.234164
 20
66.986918
 30
0.0
  0
SPLINE
  5
33e
100
AcDbEntity
  8
0
 62
7
100
AcDbSpline
 70
8
 71
3
 72
8
 73
4
 74
0
 40
0
 40
0
 40
0
 40
0
 40
1
 40
1
 40
1
 40
1
 10
119.234164
 20
66.986918
 30
0.0
 10
118.997401
 20
66.850101
 30
0.0
 10
118.705606
 20
66.850101
 30
0.0
 10
118.468843
 20
66.986918
 30
0.0
  0
SPLINE
  5
33f
100
AcDbEntity
  8
0
 62
7
100
AcDbSpline
 70
8
 71
3
 72
8
 73
4
 74
0
 40
0
 40
0
 40
0
 40
0
 40
1
 40
1
 40
1
 40
1
 10
118.468843
 20
66.986918
 30
0.0
 10
118.232080
 20
67.123734
 30
0.0
 10
118.086377
 20
67.376548
 30
0.0
 10
118.086692
 20
67.649999
 30
0.0
  0
SPLINE
  5
340
100
AcDbEntity
  8
0
 62
7
100
AcDbSpline
 70
8
 71
3
 72
8
 73
4
 74
0
 40
0
 40
0
 40
0
 40
0
 40
1
 40
1
 40
1
 40
1
 10
118.086692
 20
67.649999
 30
0.0
 10
118.086377
 20
67.923450
 30
0.0
 10
118.232080
 20
68.176264
 30
0.0
 10
118.468843
 20
68.313080
 30
0.0
  0
SPLINE
  5
341
100
AcDbEntity
  8
0
 62
7
100
AcDbSpline
 70
8
 71
3
 72
8
 73
4
 74
0
 40
0
 40
0
 40
0
 40
0
 40
1
 40
1
 40
1
 40
1
 10
118.468843
 20
68.313080
 30
0.0
 10
118.705606
 20
68.449897
 30
0.0
 10
118.997401
 20
68.449897
 30
0.0
 10
119.234164
 20
68.313080
 30
0.0
  0
SPLINE
  5
342
100
AcDbEntity
  8
0
 62
7
100
AcDbSpline
 70
8
 71
3
 72
8
 73
4
 74
0
 40
0
 40
0
 40
0
 40
0
 40
1
 40
1
 40
1
 40
1
 10
119.234164
 20
68.313080
 30
0.0
 10
119.470927
 20
68.176264
 30
0.0
 10
119.616631
 20
67.923450
 30
0.0
 10
119.616315
 20
67.649999
 30
0.0
  0
LWPOLYLINE
  5
343
100
AcDbEntity
  8
0
 62
7
100
AcDbPolyline
 90
2
 70
1
 10
110.626664
 20
67.650008
 30
0.0
 10
110.626664
 20
67.650008
 30
0.0
  0
SPLINE
  5
344
100
AcDbEntity
  8
0
 62
1
100
AcDbSpline
 70
8
 71
3
 72
8
 73
4
 74
0
 40
0
 40
0
 40
0
 40
0
 40
1
 40
1
 40
1
 40
1
 10
160.376191
 20
311.567356
 30
0.0
 10
155.105730
 20
311.567356
 30
0.0
 10
149.651814
 20
319.649049
 30
0.0
 10
145.376193
 20
316.567357
 30
0.0
  0
SPLINE
  5
345
100
AcDbEntity
  8
0
 62
1
100
AcDbSpline
 70
8
 71
3
 72
8
 73
4
 74
0
 40
0
 40
0
 40
0
 40
0
 40
1
 40
1
 40
1
 40
1
 10
145.376193
 20
316.567357
 30
0.0
 10
137.263770
 20
310.720255
 30
0.0
 10
144.878056
 20
296.554943
 30
0.0
 10
145.376193
 20
286.567355
 30
0.0
  0
SPLINE
  5
346
100
AcDbEntity
  8
0
 62
1
100
AcDbSpline
 70
8
 71
3
 72
8
 73
4
 74
0
 40
0
 40
0
 40
0
 40
0
 40
1
 40
1
 40
1
 40
1
 10
145.376193
 20
286.567355
 30
0.0
 10
146.035303
 20
273.352260
 30
0.0
 10
148.773197
 20
249.814569
 30
0.0
 10
149.894299
 20
240.509504
 30
0.0
  0
SPLINE
  5
347
100
AcDbEntity
  8
0
 62
1
100
AcDbSpline
 70
8
 71
3
 72
8
 73
4
 74
0
 40
0
 40
0
 40
0
 40
0
 40
1
 40
1
 40
1
 40
1
 10
149.894299
 20
240.509504
 30
0.0
 10
150.192402
 20
238.035285
 30
0.0
 10
151.627993
 20
236.998079
 30
0.0
 10
150.376191
 20
236.567354
 30
0.0
  0
SPLINE
  5
348
100
AcDbEntity
  8
0
 62
1
100
AcDbSpline
 70
8
 71
3
 72
8
 73
4
 74
0
 40
0
 40
0
 40
0
 40
0
 40
1
 40
1
 40
1
 40
1
 10
150.376191
 20
236.567354
 30
0.0
 10
149.268150
 20
236.186094
 30
0.0
 10
149.608676
 20
238.172329
 30
0.0
 10
148.565323
 20
239.580454
 30
0.0
  0
SPLINE
  5
349
100
AcDbEntity
  8
0
 62
1
100
AcDbSpline
 70
8
 71
3
 72
8
 73
4
 74
0
 40
0
 40
0
 40
0
 40
0
 40
1
 40
1
 40
1
 40
1
 10
148.565323
 20
239.580454
 30
0.0
 10
147.607907
 20
240.872597
 30
0.0
 10
146.418225
 20
241.998980
 30
0.0
 10
145.376190
 20
241.567355
 30
0.0
  0
SPLINE
  5
34a
100
AcDbEntity
  8
0
 62
1
100
AcDbSpline
 70
8
 71
3
 72
8
 73
4
 74
0
 40
0
 40
0
 40
0
 40
0
 40
1
 40
1
 40
1
 40
1
 10
145.376190
 20
241.567355
 30
0.0
 10
140.756793
 20
239.653939
 30
0.0
 10
140.756790
 20
228.480767
 30
0.0
 10
145.376193
 20
226.567354
 30
0.0
  0
SPLINE
  5
34b
100
AcDbEntity
  8
0
 62
1
100
AcDbSpline
 70
8
 71
3
 72
8
 73
4
 74
0
 40
0
 40
0
 40
0
 40
0
 40
1
 40
1
 40
1
 40
1
 10
145.376193
 20
226.567354
 30
0.0
 10
146.672047
 20
226.030596
 30
0.0
 10
148.196236
 20
227.903284
 30
0.0
 10
149.218112
 20
229.507858
 30
0.0
  0
SPLINE
  5
34c
100
AcDbEntity
  8
0
 62
1
100
AcDbSpline
 70
8
 71
3
 72
8
 73
4
 74
0
 40
0
 40
0
 40
0
 40
0
 40
1
 40
1
 40
1
 40
1
 10
149.218112
 20
229.507858
 30
0.0
 10
149.913437
 20
230.599675
 30
0.0
 10
149.592172
 20
231.642257
 30
0.0
 10
150.376191
 20
231.567355
 30
0.0
  0
SPLINE
  5
34d
100
AcDbEntity
  8
0
 62
1
100
AcDbSpline
 70
8
 71
3
 72
8
 73
4
 74
0
 40
0
 40
0
 40
0
 40
0
 40
1
 40
1
 40
1
 40
1
 10
150.376191
 20
231.567355
 30
0.0
 10
151.094723
 20
231.498708
 30
0.0
 10
151.060952
 20
229.513068
 30
0.0
 10
151.060952
 20
229.513068
 30
0.0
  0
LWPOLYLINE
  5
34e
100
AcDbEntity
  8
0
 62
7
100
AcDbPolyline
 90
2
 70
1
 10
119.616315
 20
67.649999
 30
0.0
 10
119.616315
 20
67.649999
 30
0.0
  0
SPLINE
  5
34f
100
AcDbEntity
  8
0
 62
1
100
AcDbSpline
 70
8
 71
3
 72
8
 73
4
 74
0
 40
0
 40
0
 40
0
 40
0
 40
1
 40
1
 40
1
 40
1
 10
154.733775
 20
218.494607
 30
0.0
 10
155.394775
 20
217.349722
 30
0.0
 10
155.029838
 20
216.567357
 30
0.0
 10
154.536626
 20
216.567357
 30
0.0
  0
LWPOLYLINE
  5
350
100
AcDbEntity
  8
0
 62
1
100
AcDbPolyline
 90
2
 70
1
 10
151.060952
 20
229.513068
 30
0.0
 10
154.733775
 20
218.494607
 30
0.0
  0
SPLINE
  5
351
100
AcDbEntity
  8
0
 62
1
100
AcDbSpline
 70
8
 71
3
 72
8
 73
4
 74
0
 40
0
 40
0
 40
0
 40
0
 40
1
 40
1
 40
1
 40
1
 10
140.376191
 20
216.567357
 30
0.0
 10
140.376191
 20
216.567357
 30
0.0
 10
138.461584
 20
199.677765
 30
0.0
 10
140.376191
 20
191.567356
 30
0.0
  0
SPLINE
  5
352
100
AcDbEntity
  8
0
 62
1
100
AcDbSpline
 70
8
 71
3
 72
8
 73
4
 74
0
 40
0
 40
0
 40
0
 40
0
 40
1
 40
1
 40
1
 40
1
 10
140.376191
 20
191.567356
 30
0.0
 10
141.232431
 20
187.940273
 30
0.0
 10
141.697536
 20
182.164321
 30
0.0
 10
145.376193
 20
181.567357
 30
0.0
  0
SPLINE
  5
353
100
AcDbEntity
  8
0
 62
1
100
AcDbSpline
 70
8
 71
3
 72
8
 73
4
 74
0
 40
0
 40
0
 40
0
 40
0
 40
1
 40
1
 40
1
 40
1
 10
145.376193
 20
181.567357
 30
0.0
 10
146.729465
 20
181.347751
 30
0.0
 10
148.200080
 20
183.075236
 30
0.0
 10
149.193686
 20
184.559033
 30
0.0
  0
SPLINE
  5
354
100
AcDbEntity
  8
0
 62
1
100
AcDbSpline
 70
8
 71
3
 72
8
 73
4
 74
0
 40
0
 40
0
 40
0
 40
0
 40
1
 40
1
 40
1
 40
1
 10
149.193686
 20
184.559033
 30
0.0
 10
149.908315
 20
185.626223
 30
0.0
 10
149.626662
 20
186.771630
 30
0.0
 10
150.376191
 20
186.567358
 30
0.0
  0
SPLINE
  5
355
100
AcDbEntity
  8
0
 62
1
100
AcDbSpline
 70
8
 71
3
 72
8
 73
4
 74
0
 40
0
 40
0
 40
0
 40
0
 40
1
 40
1
 40
1
 40
1
 10
150.376191
 20
186.567358
 30
0.0
 10
153.592226
 20
185.690877
 30
0.0
 10
152.128630
 20
179.402859
 30
0.0
 10
150.376191
 20
176.567358
 30
0.0
  0
SPLINE
  5
356
100
AcDbEntity
  8
0
 62
1
100
AcDbSpline
 70
8
 71
3
 72
8
 73
4
 74
0
 40
0
 40
0
 40
0
 40
0
 40
1
 40
1
 40
1
 40
1
 10
150.376191
 20
176.567358
 30
0.0
 10
148.416908
 20
173.397167
 30
0.0
 10
142.335477
 20
174.737545
 30
0.0
 10
140.376191
 20
171.567357
 30
0.0
  0
SPLINE
  5
357
100
AcDbEntity
  8
0
 62
1
100
AcDbSpline
 70
8
 71
3
 72
8
 73
4
 74
0
 40
0
 40
0
 40
0
 40
0
 40
1
 40
1
 40
1
 40
1
 10
140.376191
 20
171.567357
 30
0.0
 10
139.499973
 20
170.149605
 30
0.0
 10
140.376191
 20
166.567355
 30
0.0
 10
140.376191
 20
166.567355
 30
0.0
  0
LWPOLYLINE
  5
358
100
AcDbEntity
  8
0
 62
1
100
AcDbPolyline
 90
3
 70
1
 10
154.536626
 20
216.567357
 30
0.0
 10
152.538389
 20
216.567357
 30
0.0
 10
140.376191
 20
216.567357
 30
0.0
  0
SPLINE
  5
359
100
AcDbEntity
  8
0
 62
1
100
AcDbSpline
 70
8
 71
3
 72
8
 73
4
 74
0
 40
0
 40
0
 40
0
 40
0
 40
1
 40
1
 40
1
 40
1
 10
180.376193
 20
166.567355
 30
0.0
 10
180.376193
 20
166.567355
 30
0.0
 10
181.252411
 20
170.149605
 30
0.0
 10
180.376193
 20
171.567357
 30
0.0
  0
SPLINE
  5
35a
100
AcDbEntity
  8
0
 62
1
100
AcDbSpline
 70
8
 71
3
 72
8
 73
4
 74
0
 40
0
 40
0
 40
0
 40
0
 40
1
 40
1
 40
1
 40
1
 10
180.376193
 20
171.567357
 30
0.0
 10
178.416908
 20
174.737545
 30
0.0
 10
172.335476
 20
173.397167
 30
0.0
 10
170.376193
 20
176.567358
 30
0.0
  0
SPLINE
  5
35b
100
AcDbEntity
  8
0
 62
1
100
AcDbSpline
 70
8
 71
3
 72
8
 73
4
 74
0
 40
0
 40
0
 40
0
 40
0
 40
1
 40
1
 40
1
 40
1
 10
170.376193
 20
176.567358
 30
0.0
 10
168.623754
 20
179.402859
 30
0.0
 10
167.159992
 20
185.691484
 30
0.0
 10
170.376193
 20
186.567358
 30
0.0
  0
SPLINE
  5
35c
100
AcDbEntity
  8
0
 62
1
100
AcDbSpline
 70
8
 71
3
 72
8
 73
4
 74
0
 40
0
 40
0
 40
0
 40
0
 40
1
 40
1
 40
1
 40
1
 10
170.376193
 20
186.567358
 30
0.0
 10
171.120865
 20
186.770154
 30
0.0
 10
170.840373
 20
185.633662
 30
0.0
 10
171.550224
 20
184.571705
 30
0.0
  0
SPLINE
  5
35d
100
AcDbEntity
  8
0
 62
1
100
AcDbSpline
 70
8
 71
3
 72
8
 73
4
 74
0
 40
0
 40
0
 40
0
 40
0
 40
1
 40
1
 40
1
 40
1
 10
171.550224
 20
184.571705
 30
0.0
 10
172.543928
 20
183.085091
 30
0.0
 10
174.019064
 20
181.347124
 30
0.0
 10
175.376192
 20
181.567357
 30
0.0
  0
SPLINE
  5
35e
100
AcDbEntity
  8
0
 62
1
100
AcDbSpline
 70
8
 71
3
 72
8
 73
4
 74
0
 40
0
 40
0
 40
0
 40
0
 40
1
 40
1
 40
1
 40
1
 10
175.376192
 20
181.567357
 30
0.0
 10
179.054848
 20
182.164321
 30
0.0
 10
179.519953
 20
187.940273
 30
0.0
 10
180.376193
 20
191.567356
 30
0.0
  0
SPLINE
  5
35f
100
AcDbEntity
  8
0
 62
1
100
AcDbSpline
 70
8
 71
3
 72
8
 73
4
 74
0
 40
0
 40
0
 40
0
 40
0
 40
1
 40
1
 40
1
 40
1
 10
180.376193
 20
191.567356
 30
0.0
 10
182.290800
 20
199.677765
 30
0.0
 10
180.376193
 20
216.567357
 30
0.0
 10
180.376193
 20
216.567357
 30
0.0
  0
LWPOLYLINE
  5
360
100
AcDbEntity
  8
0
 62
1
100
AcDbPolyline
 90
2
 70
1
 10
140.376191
 20
166.567355
 30
0.0
 10
180.376193
 20
166.567355
 30
0.0
  0
SPLINE
  5
361
100
AcDbEntity
  8
0
 62
1
100
AcDbSpline
 70
8
 71
3
 72
8
 73
4
 74
0
 40
0
 40
0
 40
0
 40
0
 40
1
 40
1
 40
1
 40
1
 10
166.469775
 20
216.567357
 30
0.0
 10
166.469775
 20
216.567357
 30
0.0
 10
165.632124
 20
217.335154
 30
0.0
 10
166.035568
 20
218.545484
 30
0.0
  0
LWPOLYLINE
  5
362
100
AcDbEntity
  8
0
 62
1
100
AcDbPolyline
 90
3
 70
1
 10
180.376193
 20
216.567357
 30
0.0
 10
168.524302
 20
216.567357
 30
0.0
 10
166.469775
 20
216.567357
 30
0.0
  0
SPLINE
  5
363
100
AcDbEntity
  8
0
 62
1
100
AcDbSpline
 70
8
 71
3
 72
8
 73
4
 74
0
 40
0
 40
0
 40
0
 40
0
 40
1
 40
1
 40
1
 40
1
 10
169.680245
 20
229.479509
 30
0.0
 10
169.680245
 20
229.479509
 30
0.0
 10
169.645924
 20
231.497584
 30
0.0
 10
170.376193
 20
231.567355
 30
0.0
  0
SPLINE
  5
364
100
AcDbEntity
  8
0
 62
1
100
AcDbSpline
 70
8
 71
3
 72
8
 73
4
 74
0
 40
0
 40
0
 40
0
 40
0
 40
1
 40
1
 40
1
 40
1
 10
170.376193
 20
231.567355
 30
0.0
 10
171.160339
 20
231.642274
 30
0.0
 10
170.839041
 20
230.599483
 30
0.0
 10
171.534478
 20
229.507534
 30
0.0
  0
SPLINE
  5
365
100
AcDbEntity
  8
0
 62
1
100
AcDbSpline
 70
8
 71
3
 72
8
 73
4
 74
0
 40
0
 40
0
 40
0
 40
0
 40
1
 40
1
 40
1
 40
1
 10
171.534478
 20
229.507534
 30
0.0
 10
172.556354
 20
227.903030
 30
0.0
 10
174.080425
 20
226.030632
 30
0.0
 10
175.376192
 20
226.567354
 30
0.0
  0
SPLINE
  5
366
100
AcDbEntity
  8
0
 62
1
100
AcDbSpline
 70
8
 71
3
 72
8
 73
4
 74
0
 40
0
 40
0
 40
0
 40
0
 40
1
 40
1
 40
1
 40
1
 10
175.376192
 20
226.567354
 30
0.0
 10
179.995591
 20
228.480764
 30
0.0
 10
179.995588
 20
239.653939
 30
0.0
 10
175.376192
 20
241.567355
 30
0.0
  0
SPLINE
  5
367
100
AcDbEntity
  8
0
 62
1
100
AcDbSpline
 70
8
 71
3
 72
8
 73
4
 74
0
 40
0
 40
0
 40
0
 40
0
 40
1
 40
1
 40
1
 40
1
 10
175.376192
 20
241.567355
 30
0.0
 10
174.051940
 20
242.115879
 30
0.0
 10
172.489236
 20
240.148195
 30
0.0
 10
171.467823
 20
238.521779
 30
0.0
  0
SPLINE
  5
368
100
AcDbEntity
  8
0
 62
1
100
AcDbSpline
 70
8
 71
3
 72
8
 73
4
 74
0
 40
0
 40
0
 40
0
 40
0
 40
1
 40
1
 40
1
 40
1
 10
171.467823
 20
238.521779
 30
0.0
 10
170.809622
 20
237.473708
 30
0.0
 10
171.085454
 20
236.335460
 30
0.0
 10
170.376193
 20
236.567354
 30
0.0
  0
SPLINE
  5
369
100
AcDbEntity
  8
0
 62
1
100
AcDbSpline
 70
8
 71
3
 72
8
 73
4
 74
0
 40
0
 40
0
 40
0
 40
0
 40
1
 40
1
 40
1
 40
1
 10
170.376193
 20
236.567354
 30
0.0
 10
169.753890
 20
236.770816
 30
0.0
 10
170.463902
 20
237.267889
 30
0.0
 10
170.616415
 20
238.516764
 30
0.0
  0
SPLINE
  5
36a
100
AcDbEntity
  8
0
 62
1
100
AcDbSpline
 70
8
 71
3
 72
8
 73
4
 74
0
 40
0
 40
0
 40
0
 40
0
 40
1
 40
1
 40
1
 40
1
 10
170.616415
 20
238.516764
 30
0.0
 10
171.514957
 20
245.874614
 30
0.0
 10
174.662895
 20
272.265812
 30
0.0
 10
175.376192
 20
286.567355
 30
0.0
  0
SPLINE
  5
36b
100
AcDbEntity
  8
0
 62
1
100
AcDbSpline
 70
8
 71
3
 72
8
 73
4
 74
0
 40
0
 40
0
 40
0
 40
0
 40
1
 40
1
 40
1
 40
1
 10
175.376192
 20
286.567355
 30
0.0
 10
175.874328
 20
296.554943
 30
0.0
 10
183.488613
 20
310.720255
 30
0.0
 10
175.376192
 20
316.567357
 30
0.0
  0
SPLINE
  5
36c
100
AcDbEntity
  8
0
 62
1
100
AcDbSpline
 70
8
 71
3
 72
8
 73
4
 74
0
 40
0
 40
0
 40
0
 40
0
 40
1
 40
1
 40
1
 40
1
 10
175.376192
 20
316.567357
 30
0.0
 10
171.100570
 20
319.649049
 30
0.0
 10
165.646654
 20
311.567356
 30
0.0
 10
160.376191
 20
311.567356
 30
0.0
  0
LWPOLYLINE
  5
36d
100
AcDbEntity
  8
0
 62
1
100
AcDbPolyline
 90
2
 70
1
 10
166.035568
 20
218.545484
 30
0.0
 10
169.680245
 20
229.479509
 30
0.0
  0
LWPOLYLINE
  5
36e
100
AcDbEntity
  8
0
 62
1
100
AcDbPolyline
 90
2
 70
1
 10
160.376191
 20
311.567356
 30
0.0
 10
160.376191
 20
311.567356
 30
0.0
  0
LWPOLYLINE
  5
36f
100
AcDbEntity
  8
0
 62
7
100
AcDbPolyline
 90
2
 70
0
 10
140.376191
 20
206.567338
 30
0.0
 10
180.376193
 20
206.567338
 30
0.0
  0
LWPOLYLINE
  5
370
100
AcDbEntity
  8
0
 62
7
100
AcDbPolyline
 90
2
 70
0
 10
140.376191
 20
196.567358
 30
0.0
 10
180.376193
 20
196.567358
 30
0.0
  0
SPLINE
  5
371
100
AcDbEntity
  8
0
 62
7
100
AcDbSpline
 70
8
 71
3
 72
8
 73
4
 74
0
 40
0
 40
0
 40
0
 40
0
 40
1
 40
1
 40
1
 40
1
 10
158.235908
 20
234.067350
 30
0.0
 10
158.236093
 20
233.581500
 30
0.0
 10
157.786374
 20
233.132510
 30
0.0
 10
157.056199
 20
232.889554
 30
0.0
  0
SPLINE
  5
372
100
AcDbEntity
  8
0
 62
7
100
AcDbSpline
 70
8
 71
3
 72
8
 73
4
 74
0
 40
0
 40
0
 40
0
 40
0
 40
1
 40
1
 40
1
 40
1
 10
157.056199
 20
232.889554
 30
0.0
 10
156.326025
 20
232.646598
 30
0.0
 10
155.426360
 20
232.646598
 30
0.0
 10
154.696186
 20
232.889554
 30
0.0
  0
SPLINE
  5
373
100
AcDbEntity
  8
0
 62
7
100
AcDbSpline
 70
8
 71
3
 72
8
 73
4
 74
0
 40
0
 40
0
 40
0
 40
0
 40
1
 40
1
 40
1
 40
1
 10
154.696186
 20
232.889554
 30
0.0
 10
153.966011
 20
233.132510
 30
0.0
 10
153.516292
 20
233.581500
 30
0.0
 10
153.516477
 20
234.067350
 30
0.0
  0
SPLINE
  5
374
100
AcDbEntity
  8
0
 62
7
100
AcDbSpline
 70
8
 71
3
 72
8
 73
4
 74
0
 40
0
 40
0
 40
0
 40
0
 40
1
 40
1
 40
1
 40
1
 10
153.516477
 20
234.067350
 30
0.0
 10
153.516292
 20
234.553201
 30
0.0
 10
153.966011
 20
235.002191
 30
0.0
 10
154.696186
 20
235.245147
 30
0.0
  0
SPLINE
  5
375
100
AcDbEntity
  8
0
 62
7
100
AcDbSpline
 70
8
 71
3
 72
8
 73
4
 74
0
 40
0
 40
0
 40
0
 40
0
 40
1
 40
1
 40
1
 40
1
 10
154.696186
 20
235.245147
 30
0.0
 10
155.426360
 20
235.488102
 30
0.0
 10
156.326025
 20
235.488102
 30
0.0
 10
157.056199
 20
235.245147
 30
0.0
  0
SPLINE
  5
376
100
AcDbEntity
  8
0
 62
7
100
AcDbSpline
 70
8
 71
3
 72
8
 73
4
 74
0
 40
0
 40
0
 40
0
 40
0
 40
1
 40
1
 40
1
 40
1
 10
157.056199
 20
235.245147
 30
0.0
 10
157.786374
 20
235.002191
 30
0.0
 10
158.236093
 20
234.553201
 30
0.0
 10
158.235908
 20
234.067350
 30
0.0
  0
LWPOLYLINE
  5
377
100
AcDbEntity
  8
0
 62
7
100
AcDbPolyline
 90
2
 70
0
 10
151.507616
 20
186.569723
 30
0.0
 10
169.507615
 20
186.569723
 30
0.0
  0
SPLINE
  5
378
100
AcDbEntity
  8
0
 62
7
100
AcDbSpline
 70
8
 71
3
 72
8
 73
4
 74
0
 40
0
 40
0
 40
0
 40
0
 40
1
 40
1
 40
1
 40
1
 10
167.229496
 20
234.067328
 30
0.0
 10
167.229966
 20
233.583658
 30
0.0
 10
166.781531
 20
233.136614
 30
0.0
 10
166.053223
 20
232.894701
 30
0.0
  0
SPLINE
  5
379
100
AcDbEntity
  8
0
 62
7
100
AcDbSpline
 70
8
 71
3
 72
8
 73
4
 74
0
 40
0
 40
0
 40
0
 40
0
 40
1
 40
1
 40
1
 40
1
 10
166.053223
 20
232.894701
 30
0.0
 10
165.324916
 20
232.652789
 30
0.0
 10
164.427468
 20
232.652789
 30
0.0
 10
163.699160
 20
232.894701
 30
0.0
  0
SPLINE
  5
37a
100
AcDbEntity
  8
0
 62
7
100
AcDbSpline
 70
8
 71
3
 72
8
 73
4
 74
0
 40
0
 40
0
 40
0
 40
0
 40
1
 40
1
 40
1
 40
1
 10
163.699160
 20
232.894701
 30
0.0
 10
162.970852
 20
233.136614
 30
0.0
 10
162.522417
 20
233.583658
 30
0.0
 10
162.522887
 20
234.067328
 30
0.0
  0
SPLINE
  5
37b
100
AcDbEntity
  8
0
 62
7
100
AcDbSpline
 70
8
 71
3
 72
8
 73
4
 74
0
 40
0
 40
0
 40
0
 40
0
 40
1
 40
1
 40
1
 40
1
 10
162.522887
 20
234.067328
 30
0.0
 10
162.522417
 20
234.550997
 30
0.0
 10
162.970852
 20
234.998041
 30
0.0
 10
163.699160
 20
235.239954
 30
0.0
  0
SPLINE
  5
37c
100
AcDbEntity
  8
0
 62
7
100
AcDbSpline
 70
8
 71
3
 72
8
 73
4
 74
0
 40
0
 40
0
 40
0
 40
0
 40
1
 40
1
 40
1
 40
1
 10
163.699160
 20
235.239954
 30
0.0
 10
164.427468
 20
235.481867
 30
0.0
 10
165.324916
 20
235.481867
 30
0.0
 10
166.053223
 20
235.239954
 30
0.0
  0
SPLINE
  5
37d
100
AcDbEntity
  8
0
 62
7
100
AcDbSpline
 70
8
 71
3
 72
8
 73
4
 74
0
 40
0
 40
0
 40
0
 40
0
 40
1
 40
1
 40
1
 40
1
 10
166.053223
 20
235.239954
 30
0.0
 10
166.781531
 20
234.998041
 30
0.0
 10
167.229966
 20
234.550997
 30
0.0
 10
167.229496
 20
234.067328
 30
0.0
  0
LWPOLYLINE
  5
37e
100
AcDbEntity
  8
0
 62
7
100
AcDbPolyline
 90
2
 70
1
 10
158.235908
 20
234.067350
 30
0.0
 10
158.235908
 20
234.067350
 30
0.0
  0
SPLINE
  5
37f
100
AcDbEntity
  8
0
 62
7
100
AcDbSpline
 70
8
 71
3
 72
8
 73
4
 74
0
 40
0
 40
0
 40
0
 40
0
 40
1
 40
1
 40
1
 40
1
 10
155.437889
 20
226.504418
 30
0.0
 10
155.437889
 20
226.504418
 30
0.0
 10
158.421443
 20
223.492261
 30
0.0
 10
160.343219
 20
223.474650
 30
0.0
  0
SPLINE
  5
380
100
AcDbEntity
  8
0
 62
7
100
AcDbSpline
 70
8
 71
3
 72
8
 73
4
 74
0
 40
0
 40
0
 40
0
 40
0
 40
1
 40
1
 40
1
 40
1
 10
160.343219
 20
223.474650
 30
0.0
 10
162.355585
 20
223.456306
 30
0.0
 10
165.537095
 20
226.552509
 30
0.0
 10
165.537095
 20
226.552509
 30
0.0
  0
SPLINE
  5
381
100
AcDbEntity
  8
0
 62
7
100
AcDbSpline
 70
8
 71
3
 72
8
 73
4
 74
0
 40
0
 40
0
 40
0
 40
0
 40
1
 40
1
 40
1
 40
1
 10
165.537095
 20
226.552509
 30
0.0
 10
165.537095
 20
226.552509
 30
0.0
 10
162.133402
 20
225.641157
 30
0.0
 10
160.391309
 20
225.638786
 30
0.0
  0
SPLINE
  5
382
100
AcDbEntity
  8
0
 62
7
100
AcDbSpline
 70
8
 71
3
 72
8
 73
4
 74
0
 40
0
 40
0
 40
0
 40
0
 40
1
 40
1
 40
1
 40
1
 10
160.391309
 20
225.638786
 30
0.0
 10
158.715149
 20
225.635964
 30
0.0
 10
155.437889
 20
226.504418
 30
0.0
 10
155.437889
 20
226.504418
 30
0.0
  0
LWPOLYLINE
  5
383
100
AcDbEntity
  8
0
 62
7
100
AcDbPolyline
 90
2
 70
1
 10
167.229496
 20
234.067328
 30
0.0
 10
167.229496
 20
234.067328
 30
0.0
  0
SPLINE
  5
384
100
AcDbEntity
  8
0
 62
7
100
AcDbSpline
 70
8
 71
3
 72
8
 73
4
 74
0
 40
0
 40
0
 40
0
 40
0
 40
1
 40
1
 40
1
 40
1
 10
159.381005
 20
233.286885
 30
0.0
 10
159.381005
 20
233.286885
 30
0.0
 10
161.058130
 20
231.843151
 30
0.0
 10
161.645186
 20
231.015458
 30
0.0
  0
SPLINE
  5
385
100
AcDbEntity
  8
0
 62
7
100
AcDbSpline
 70
8
 71
3
 72
8
 73
4
 74
0
 40
0
 40
0
 40
0
 40
0
 40
1
 40
1
 40
1
 40
1
 10
161.645186
 20
231.015458
 30
0.0
 10
162.232236
 20
230.187766
 30
0.0
 10
162.864363
 20
228.375721
 30
0.0
 10
162.864363
 20
228.375721
 30
0.0
  0
SPLINE
  5
386
100
AcDbEntity
  8
0
 62
7
100
AcDbSpline
 70
8
 71
3
 72
8
 73
4
 74
0
 40
0
 40
0
 40
0
 40
0
 40
1
 40
1
 40
1
 40
1
 10
162.864363
 20
228.375721
 30
0.0
 10
162.864363
 20
228.375721
 30
0.0
 10
161.849684
 20
228.130896
 30
0.0
 10
161.383936
 20
228.252932
 30
0.0
  0
SPLINE
  5
387
100
AcDbEntity
  8
0
 62
7
100
AcDbSpline
 70
8
 71
3
 72
8
 73
4
 74
0
 40
0
 40
0
 40
0
 40
0
 40
1
 40
1
 40
1
 40
1
 10
161.383936
 20
228.252932
 30
0.0
 10
160.941002
 20
228.369013
 30
0.0
 10
160.898460
 20
228.996232
 30
0.0
 10
160.426014
 20
228.989608
 30
0.0
  0
SPLINE
  5
388
100
AcDbEntity
  8
0
 62
7
100
AcDbSpline
 70
8
 71
3
 72
8
 73
4
 74
0
 40
0
 40
0
 40
0
 40
0
 40
1
 40
1
 40
1
 40
1
 10
160.426014
 20
228.989608
 30
0.0
 10
159.931781
 20
228.982609
 30
0.0
 10
159.468087
 20
228.191565
 30
0.0
 10
159.468087
 20
228.191565
 30
0.0
  0
SPLINE
  5
389
100
AcDbEntity
  8
0
 62
7
100
AcDbSpline
 70
8
 71
3
 72
8
 73
4
 74
0
 40
0
 40
0
 40
0
 40
0
 40
1
 40
1
 40
1
 40
1
 10
157.051353
 20
233.967362
 30
0.0
 10
157.051551
 20
233.690292
 30
0.0
 10
156.903849
 20
233.434184
 30
0.0
 10
156.663932
 20
233.295591
 30
0.0
  0
SPLINE
  5
38a
100
AcDbEntity
  8
0
 62
7
100
AcDbSpline
 70
8
 71
3
 72
8
 73
4
 74
0
 40
0
 40
0
 40
0
 40
0
 40
1
 40
1
 40
1
 40
1
 10
156.663932
 20
233.295591
 30
0.0
 10
156.424015
 20
233.156999
 30
0.0
 10
156.128368
 20
233.156999
 30
0.0
 10
155.888452
 20
233.295591
 30
0.0
  0
SPLINE
  5
38b
100
AcDbEntity
  8
0
 62
7
100
AcDbSpline
 70
8
 71
3
 72
8
 73
4
 74
0
 40
0
 40
0
 40
0
 40
0
 40
1
 40
1
 40
1
 40
1
 10
155.888452
 20
233.295591
 30
0.0
 10
155.648535
 20
233.434184
 30
0.0
 10
155.500833
 20
233.690292
 30
0.0
 10
155.501031
 20
233.967362
 30
0.0
  0
SPLINE
  5
38c
100
AcDbEntity
  8
0
 62
7
100
AcDbSpline
 70
8
 71
3
 72
8
 73
4
 74
0
 40
0
 40
0
 40
0
 40
0
 40
1
 40
1
 40
1
 40
1
 10
155.501031
 20
233.967362
 30
0.0
 10
155.500833
 20
234.244432
 30
0.0
 10
155.648535
 20
234.500540
 30
0.0
 10
155.888452
 20
234.639132
 30
0.0
  0
SPLINE
  5
38d
100
AcDbEntity
  8
0
 62
7
100
AcDbSpline
 70
8
 71
3
 72
8
 73
4
 74
0
 40
0
 40
0
 40
0
 40
0
 40
1
 40
1
 40
1
 40
1
 10
155.888452
 20
234.639132
 30
0.0
 10
156.128368
 20
234.777724
 30
0.0
 10
156.424015
 20
234.777724
 30
0.0
 10
156.663932
 20
234.639132
 30
0.0
  0
SPLINE
  5
38e
100
AcDbEntity
  8
0
 62
7
100
AcDbSpline
 70
8
 71
3
 72
8
 73
4
 74
0
 40
0
 40
0
 40
0
 40
0
 40
1
 40
1
 40
1
 40
1
 10
156.663932
 20
234.639132
 30
0.0
 10
156.903849
 20
234.500540
 30
0.0
 10
157.051551
 20
234.244432
 30
0.0
 10
157.051353
 20
233.967362
 30
0.0
  0
LWPOLYLINE
  5
38f
100
AcDbEntity
  8
0
 62
7
100
AcDbPolyline
 90
2
 70
1
 10
155.437889
 20
226.504418
 30
0.0
 10
155.437889
 20
226.504418
 30
0.0
  0
SPLINE
  5
390
100
AcDbEntity
  8
0
 62
7
100
AcDbSpline
 70
8
 71
3
 72
8
 73
4
 74
0
 40
0
 40
0
 40
0
 40
0
 40
1
 40
1
 40
1
 40
1
 10
166.041005
 20
233.967353
 30
0.0
 10
166.041320
 20
233.693902
 30
0.0
 10
165.895616
 20
233.441088
 30
0.0
 10
165.658853
 20
233.304272
 30
0.0
  0
SPLINE
  5
391
100
AcDbEntity
  8
0
 62
7
100
AcDbSpline
 70
8
 71
3
 72
8
 73
4
 74
0
 40
0
 40
0
 40
0
 40
0
 40
1
 40
1
 40
1
 40
1
 10
165.658853
 20
233.304272
 30
0.0
 10
165.422090
 20
233.167455
 30
0.0
 10
165.130295
 20
233.167455
 30
0.0
 10
164.893532
 20
233.304272
 30
0.0
  0
SPLINE
  5
392
100
AcDbEntity
  8
0
 62
7
100
AcDbSpline
 70
8
 71
3
 72
8
 73
4
 74
0
 40
0
 40
0
 40
0
 40
0
 40
1
 40
1
 40
1
 40
1
 10
164.893532
 20
233.304272
 30
0.0
 10
164.656769
 20
233.441088
 30
0.0
 10
164.511066
 20
233.693902
 30
0.0
 10
164.511381
 20
233.967353
 30
0.0
  0
SPLINE
  5
393
100
AcDbEntity
  8
0
 62
7
100
AcDbSpline
 70
8
 71
3
 72
8
 73
4
 74
0
 40
0
 40
0
 40
0
 40
0
 40
1
 40
1
 40
1
 40
1
 10
164.511381
 20
233.967353
 30
0.0
 10
164.511066
 20
234.240804
 30
0.0
 10
164.656769
 20
234.493618
 30
0.0
 10
164.893532
 20
234.630435
 30
0.0
  0
SPLINE
  5
394
100
AcDbEntity
  8
0
 62
7
100
AcDbSpline
 70
8
 71
3
 72
8
 73
4
 74
0
 40
0
 40
0
 40
0
 40
0
 40
1
 40
1
 40
1
 40
1
 10
164.893532
 20
234.630435
 30
0.0
 10
165.130295
 20
234.767251
 30
0.0
 10
165.422090
 20
234.767251
 30
0.0
 10
165.658853
 20
234.630435
 30
0.0
  0
SPLINE
  5
395
100
AcDbEntity
  8
0
 62
7
100
AcDbSpline
 70
8
 71
3
 72
8
 73
4
 74
0
 40
0
 40
0
 40
0
 40
0
 40
1
 40
1
 40
1
 40
1
 10
165.658853
 20
234.630435
 30
0.0
 10
165.895616
 20
234.493618
 30
0.0
 10
166.041320
 20
234.240804
 30
0.0
 10
166.041005
 20
233.967353
 30
0.0
  0
LWPOLYLINE
  5
396
100
AcDbEntity
  8
0
 62
7
100
AcDbPolyline
 90
2
 70
1
 10
157.051353
 20
233.967362
 30
0.0
 10
157.051353
 20
233.967362
 30
0.0
  0
SPLINE
  5
397
100
AcDbEntity
  8
0
 62
1
100
AcDbSpline
 70
8
 71
3
 72
8
 73
4
 74
0
 40
0
 40
0
 40
0
 40
0
 40
1
 40
1
 40
1
 40
1
 10
160.376191
 20
145.250002
 30
0.0
 10
155.105730
 20
145.250002
 30
0.0
 10
149.651814
 20
153.331695
 30
0.0
 10
145.376193
 20
150.250003
 30
0.0
  0
SPLINE
  5
398
100
AcDbEntity
  8
0
 62
1
100
AcDbSpline
 70
8
 71
3
 72
8
 73
4
 74
0
 40
0
 40
0
 40
0
 40
0
 40
1
 40
1
 40
1
 40
1
 10
145.376193
 20
150.250003
 30
0.0
 10
137.263770
 20
144.402901
 30
0.0
 10
144.878056
 20
130.237589
 30
0.0
 10
145.376193
 20
120.250001
 30
0.0
  0
SPLINE
  5
399
100
AcDbEntity
  8
0
 62
1
100
AcDbSpline
 70
8
 71
3
 72
8
 73
4
 74
0
 40
0
 40
0
 40
0
 40
0
 40
1
 40
1
 40
1
 40
1
 10
145.376193
 20
120.250001
 30
0.0
 10
146.035303
 20
107.034906
 30
0.0
 10
148.773197
 20
83.497214
 30
0.0
 10
149.894299
 20
74.192150
 30
0.0
  0
SPLINE
  5
39a
100
AcDbEntity
  8
0
 62
1
100
AcDbSpline
 70
8
 71
3
 72
8
 73
4
 74
0
 40
0
 40
0
 40
0
 40
0
 40
1
 40
1
 40
1
 40
1
 10
149.894299
 20
74.192150
 30
0.0
 10
150.192402
 20
71.717930
 30
0.0
 10
151.627993
 20
70.680724
 30
0.0
 10
150.376191
 20
70.250000
 30
0.0
  0
SPLINE
  5
39b
100
AcDbEntity
  8
0
 62
1
100
AcDbSpline
 70
8
 71
3
 72
8
 73
4
 74
0
 40
0
 40
0
 40
0
 40
0
 40
1
 40
1
 40
1
 40
1
 10
150.376191
 20
70.250000
 30
0.0
 10
149.268150
 20
69.868740
 30
0.0
 10
149.608676
 20
71.854975
 30
0.0
 10
148.565323
 20
73.263100
 30
0.0
  0
SPLINE
  5
39c
100
AcDbEntity
  8
0
 62
1
100
AcDbSpline
 70
8
 71
3
 72
8
 73
4
 74
0
 40
0
 40
0
 40
0
 40
0
 40
1
 40
1
 40
1
 40
1
 10
148.565323
 20
73.263100
 30
0.0
 10
147.607907
 20
74.555243
 30
0.0
 10
146.418225
 20
75.681626
 30
0.0
 10
145.376190
 20
75.250001
 30
0.0
  0
SPLINE
  5
39d
100
AcDbEntity
  8
0
 62
1
100
AcDbSpline
 70
8
 71
3
 72
8
 73
4
 74
0
 40
0
 40
0
 40
0
 40
0
 40
1
 40
1
 40
1
 40
1
 10
145.376190
 20
75.250001
 30
0.0
 10
140.756793
 20
73.336585
 30
0.0
 10
140.756790
 20
62.163413
 30
0.0
 10
145.376193
 20
60.250000
 30
0.0
  0
SPLINE
  5
39e
100
AcDbEntity
  8
0
 62
1
100
AcDbSpline
 70
8
 71
3
 72
8
 73
4
 74
0
 40
0
 40
0
 40
0
 40
0
 40
1
 40
1
 40
1
 40
1
 10
145.376193
 20
60.250000
 30
0.0
 10
146.672047
 20
59.713241
 30
0.0
 10
148.196236
 20
61.585930
 30
0.0
 10
149.218112
 20
63.190504
 30
0.0
  0
SPLINE
  5
39f
100
AcDbEntity
  8
0
 62
1
100
AcDbSpline
 70
8
 71
3
 72
8
 73
4
 74
0
 40
0
 40
0
 40
0
 40
0
 40
1
 40
1
 40
1
 40
1
 10
149.218112
 20
63.190504
 30
0.0
 10
149.913437
 20
64.282320
 30
0.0
 10
149.592172
 20
65.324903
 30
0.0
 10
150.376191
 20
65.250001
 30
0.0
  0
SPLINE
  5
3a0
100
AcDbEntity
  8
0
 62
1
100
AcDbSpline
 70
8
 71
3
 72
8
 73
4
 74
0
 40
0
 40
0
 40
0
 40
0
 40
1
 40
1
 40
1
 40
1
 10
150.376191
 20
65.250001
 30
0.0
 10
151.094723
 20
65.181353
 30
0.0
 10
151.060952
 20
63.195714
 30
0.0
 10
151.060952
 20
63.195714
 30
0.0
  0
LWPOLYLINE
  5
3a1
100
AcDbEntity
  8
0
 62
7
100
AcDbPolyline
 90
2
 70
1
 10
166.041005
 20
233.967353
 30
0.0
 10
166.041005
 20
233.967353
 30
0.0
  0
SPLINE
  5
3a2
100
AcDbEntity
  8
0
 62
1
100
AcDbSpline
 70
8
 71
3
 72
8
 73
4
 74
0
 40
0
 40
0
 40
0
 40
0
 40
1
 40
1
 40
1
 40
1
 10
154.733775
 20
52.177253
 30
0.0
 10
155.394775
 20
51.032368
 30
0.0
 10
155.029838
 20
50.250003
 30
0.0
 10
154.536626
 20
50.250003
 30
0.0
  0
LWPOLYLINE
  5
3a3
100
AcDbEntity
  8
0
 62
1
100
AcDbPolyline
 90
2
 70
1
 10
151.060952
 20
63.195714
 30
0.0
 10
154.733775
 20
52.177253
 30
0.0
  0
SPLINE
  5
3a4
100
AcDbEntity
  8
0
 62
1
100
AcDbSpline
 70
8
 71
3
 72
8
 73
4
 74
0
 40
0
 40
0
 40
0
 40
0
 40
1
 40
1
 40
1
 40
1
 10
140.376191
 20
50.250003
 30
0.0
 10
140.376191
 20
50.250003
 30
0.0
 10
138.461584
 20
33.360411
 30
0.0
 10
140.376191
 20
25.250002
 30
0.0
  0
SPLINE
  5
3a5
100
AcDbEntity
  8
0
 62
1
100
AcDbSpline
 70
8
 71
3
 72
8
 73
4
 74
0
 40
0
 40
0
 40
0
 40
0
 40
1
 40
1
 40
1
 40
1
 10
140.376191
 20
25.250002
 30
0.0
 10
141.232431
 20
21.622919
 30
0.0
 10
141.697536
 20
15.846967
 30
0.0
 10
145.376193
 20
15.250002
 30
0.0
  0
SPLINE
  5
3a6
100
AcDbEntity
  8
0
 62
1
100
AcDbSpline
 70
8
 71
3
 72
8
 73
4
 74
0
 40
0
 40
0
 40
0
 40
0
 40
1
 40
1
 40
1
 40
1
 10
145.376193
 20
15.250002
 30
0.0
 10
146.729465
 20
15.030397
 30
0.0
 10
148.200080
 20
16.757882
 30
0.0
 10
149.193686
 20
18.241679
 30
0.0
  0
SPLINE
  5
3a7
100
AcDbEntity
  8
0
 62
1
100
AcDbSpline
 70
8
 71
3
 72
8
 73
4
 74
0
 40
0
 40
0
 40
0
 40
0
 40
1
 40
1
 40
1
 40
1
 10
149.193686
 20
18.241679
 30
0.0
 10
149.908315
 20
19.308869
 30
0.0
 10
149.626662
 20
20.454276
 30
0.0
 10
150.376191
 20
20.250004
 30
0.0
  0
SPLINE
  5
3a8
100
AcDbEntity
  8
0
 62
1
100
AcDbSpline
 70
8
 71
3
 72
8
 73
4
 74
0
 40
0
 40
0
 40
0
 40
0
 40
1
 40
1
 40
1
 40
1
 10
150.376191
 20
20.250004
 30
0.0
 10
153.592226
 20
19.373523
 30
0.0
 10
152.128630
 20
13.085505
 30
0.0
 10
150.376191
 20
10.250004
 30
0.0
  0
SPLINE
  5
3a9
100
AcDbEntity
  8
0
 62
1
100
AcDbSpline
 70
8
 71
3
 72
8
 73
4
 74
0
 40
0
 40
0
 40
0
 40
0
 40
1
 40
1
 40
1
 40
1
 10
150.376191
 20
10.250004
 30
0.0
 10
148.416908
 20
7.079813
 30
0.0
 10
142.335477
 20
8.420191
 30
0.0
 10
140.376191
 20
5.250003
 30
0.0
  0
SPLINE
  5
3aa
100
AcDbEntity
  8
0
 62
1
100
AcDbSpline
 70
8
 71
3
 72
8
 73
4
 74
0
 40
0
 40
0
 40
0
 40
0
 40
1
 40
1
 40
1
 40
1
 10
140.376191
 20
5.250003
 30
0.0
 10
139.499973
 20
3.832251
 30
0.0
 10
140.376191
 20
0.250001
 30
0.0
 10
140.376191
 20
0.250001
 30
0.0
  0
LWPOLYLINE
  5
3ab
100
AcDbEntity
  8
0
 62
1
100
AcDbPolyline
 90
3
 70
1
 10
154.536626
 20
50.250003
 30
0.0
 10
152.538389
 20
50.250003
 30
0.0
 10
140.376191
 20
50.250003
 30
0.0
  0
SPLINE
  5
3ac
100
AcDbEntity
  8
0
 62
1
100
AcDbSpline
 70
8
 71
3
 72
8
 73
4
 74
0
 40
0
 40
0
 40
0
 40
0
 40
1
 40
1
 40
1
 40
1
 10
180.376193
 20
0.250001
 30
0.0
 10
180.376193
 20
0.250001
 30
0.0
 10
181.252411
 20
3.832251
 30
0.0
 10
180.376193
 20
5.250003
 30
0.0
  0
SPLINE
  5
3ad
100
AcDbEntity
  8
0
 62
1
100
AcDbSpline
 70
8
 71
3
 72
8
 73
4
 74
0
 40
0
 40
0
 40
0
 40
0
 40
1
 40
1
 40
1
 40
1
 10
180.376193
 20
5.250003
 30
0.0
 10
178.416908
 20
8.420191
 30
0.0
 10
172.335476
 20
7.079813
 30
0.0
 10
170.376193
 20
10.250004
 30
0.0
  0
SPLINE
  5
3ae
100
AcDbEntity
  8
0
 62
1
100
AcDbSpline
 70
8
 71
3
 72
8
 73
4
 74
0
 40
0
 40
0
 40
0
 40
0
 40
1
 40
1
 40
1
 40
1
 10
170.376193
 20
10.250004
 30
0.0
 10
168.623754
 20
13.085505
 30
0.0
 10
167.159992
 20
19.374130
 30
0.0
 10
170.376193
 20
20.250004
 30
0.0
  0
SPLINE
  5
3af
100
AcDbEntity
  8
0
 62
1
100
AcDbSpline
 70
8
 71
3
 72
8
 73
4
 74
0
 40
0
 40
0
 40
0
 40
0
 40
1
 40
1
 40
1
 40
1
 10
170.376193
 20
20.250004
 30
0.0
 10
171.120865
 20
20.452800
 30
0.0
 10
170.840373
 20
19.316308
 30
0.0
 10
171.550224
 20
18.254351
 30
0.0
  0
SPLINE
  5
3b0
100
AcDbEntity
  8
0
 62
1
100
AcDbSpline
 70
8
 71
3
 72
8
 73
4
 74
0
 40
0
 40
0
 40
0
 40
0
 40
1
 40
1
 40
1
 40
1
 10
171.550224
 20
18.254351
 30
0.0
 10
172.543928
 20
16.767737
 30
0.0
 10
174.019064
 20
15.029770
 30
0.0
 10
175.376192
 20
15.250002
 30
0.0
  0
SPLINE
  5
3b1
100
AcDbEntity
  8
0
 62
1
100
AcDbSpline
 70
8
 71
3
 72
8
 73
4
 74
0
 40
0
 40
0
 40
0
 40
0
 40
1
 40
1
 40
1
 40
1
 10
175.376192
 20
15.250002
 30
0.0
 10
179.054848
 20
15.846967
 30
0.0
 10
179.519953
 20
21.622919
 30
0.0
 10
180.376193
 20
25.250002
 30
0.0
  0
SPLINE
  5
3b2
100
AcDbEntity
  8
0
 62
1
100
AcDbSpline
 70
8
 71
3
 72
8
 73
4
 74
0
 40
0
 40
0
 40
0
 40
0
 40
1
 40
1
 40
1
 40
1
 10
180.376193
 20
25.250002
 30
0.0
 10
182.290800
 20
33.360411
 30
0.0
 10
180.376193
 20
50.250003
 30
0.0
 10
180.376193
 20
50.250003
 30
0.0
  0
LWPOLYLINE
  5
3b3
100
AcDbEntity
  8
0
 62
1
100
AcDbPolyline
 90
2
 70
1
 10
140.376191
 20
0.250001
 30
0.0
 10
180.376193
 20
0.250001
 30
0.0
  0
SPLINE
  5
3b4
100
AcDbEntity
  8
0
 62
1
100
AcDbSpline
 70
8
 71
3
 72
8
 73
4
 74
0
 40
0
 40
0
 40
0
 40
0
 40
1
 40
1
 40
1
 40
1
 10
166.469775
 20
50.250003
 30
0.0
 10
166.469775
 20
50.250003
 30
0.0
 10
165.632124
 20
51.017800
 30
0.0
 10
166.035568
 20
52.228129
 30
0.0
  0
LWPOLYLINE
  5
3b5
100
AcDbEntity
  8
0
 62
1
100
AcDbPolyline
 90
3
 70
1
 10
180.376193
 20
50.250003
 30
0.0
 10
168.524302
 20
50.250003
 30
0.0
 10
166.469775
 20
50.250003
 30
0.0
  0
SPLINE
  5
3b6
100
AcDbEntity
  8
0
 62
1
100
AcDbSpline
 70
8
 71
3
 72
8
 73
4
 74
0
 40
0
 40
0
 40
0
 40
0
 40
1
 40
1
 40
1
 40
1
 10
169.680245
 20
63.162155
 30
0.0
 10
169.680245
 20
63.162155
 30
0.0
 10
169.645924
 20
65.180230
 30
0.0
 10
170.376193
 20
65.250001
 30
0.0
  0
SPLINE
  5
3b7
100
AcDbEntity
  8
0
 62
1
100
AcDbSpline
 70
8
 71
3
 72
8
 73
4
 74
0
 40
0
 40
0
 40
0
 40
0
 40
1
 40
1
 40
1
 40
1
 10
170.376193
 20
65.250001
 30
0.0
 10
171.160339
 20
65.324920
 30
0.0
 10
170.839041
 20
64.282128
 30
0.0
 10
171.534478
 20
63.190180
 30
0.0
  0
SPLINE
  5
3b8
100
AcDbEntity
  8
0
 62
1
100
AcDbSpline
 70
8
 71
3
 72
8
 73
4
 74
0
 40
0
 40
0
 40
0
 40
0
 40
1
 40
1
 40
1
 40
1
 10
171.534478
 20
63.190180
 30
0.0
 10
172.556354
 20
61.585676
 30
0.0
 10
174.080425
 20
59.713278
 30
0.0
 10
175.376192
 20
60.250000
 30
0.0
  0
SPLINE
  5
3b9
100
AcDbEntity
  8
0
 62
1
100
AcDbSpline
 70
8
 71
3
 72
8
 73
4
 74
0
 40
0
 40
0
 40
0
 40
0
 40
1
 40
1
 40
1
 40
1
 10
175.376192
 20
60.250000
 30
0.0
 10
179.995591
 20
62.163410
 30
0.0
 10
179.995588
 20
73.336585
 30
0.0
 10
175.376192
 20
75.250001
 30
0.0
  0
SPLINE
  5
3ba
100
AcDbEntity
  8
0
 62
1
100
AcDbSpline
 70
8
 71
3
 72
8
 73
4
 74
0
 40
0
 40
0
 40
0
 40
0
 40
1
 40
1
 40
1
 40
1
 10
175.376192
 20
75.250001
 30
0.0
 10
174.051940
 20
75.798525
 30
0.0
 10
172.489236
 20
73.830841
 30
0.0
 10
171.467823
 20
72.204425
 30
0.0
  0
SPLINE
  5
3bb
100
AcDbEntity
  8
0
 62
1
100
AcDbSpline
 70
8
 71
3
 72
8
 73
4
 74
0
 40
0
 40
0
 40
0
 40
0
 40
1
 40
1
 40
1
 40
1
 10
171.467823
 20
72.204425
 30
0.0
 10
170.809622
 20
71.156353
 30
0.0
 10
171.085454
 20
70.018106
 30
0.0
 10
170.376193
 20
70.250000
 30
0.0
  0
SPLINE
  5
3bc
100
AcDbEntity
  8
0
 62
1
100
AcDbSpline
 70
8
 71
3
 72
8
 73
4
 74
0
 40
0
 40
0
 40
0
 40
0
 40
1
 40
1
 40
1
 40
1
 10
170.376193
 20
70.250000
 30
0.0
 10
169.753890
 20
70.453462
 30
0.0
 10
170.463902
 20
70.950534
 30
0.0
 10
170.616415
 20
72.199410
 30
0.0
  0
SPLINE
  5
3bd
100
AcDbEntity
  8
0
 62
1
100
AcDbSpline
 70
8
 71
3
 72
8
 73
4
 74
0
 40
0
 40
0
 40
0
 40
0
 40
1
 40
1
 40
1
 40
1
 10
170.616415
 20
72.199410
 30
0.0
 10
171.514957
 20
79.557259
 30
0.0
 10
174.662895
 20
105.948458
 30
0.0
 10
175.376192
 20
120.250001
 30
0.0
  0
SPLINE
  5
3be
100
AcDbEntity
  8
0
 62
1
100
AcDbSpline
 70
8
 71
3
 72
8
 73
4
 74
0
 40
0
 40
0
 40
0
 40
0
 40
1
 40
1
 40
1
 40
1
 10
175.376192
 20
120.250001
 30
0.0
 10
175.874328
 20
130.237589
 30
0.0
 10
183.488613
 20
144.402901
 30
0.0
 10
175.376192
 20
150.250003
 30
0.0
  0
SPLINE
  5
3bf
100
AcDbEntity
  8
0
 62
1
100
AcDbSpline
 70
8
 71
3
 72
8
 73
4
 74
0
 40
0
 40
0
 40
0
 40
0
 40
1
 40
1
 40
1
 40
1
 10
175.376192
 20
150.250003
 30
0.0
 10
171.100570
 20
153.331695
 30
0.0
 10
165.646654
 20
145.250002
 30
0.0
 10
160.376191
 20
145.250002
 30
0.0
  0
LWPOLYLINE
  5
3c0
100
AcDbEntity
  8
0
 62
1
100
AcDbPolyline
 90
2
 70
1
 10
166.035568
 20
52.228129
 30
0.0
 10
169.680245
 20
63.162155
 30
0.0
  0
LWPOLYLINE
  5
3c1
100
AcDbEntity
  8
0
 62
1
100
AcDbPolyline
 90
2
 70
1
 10
160.376191
 20
145.250002
 30
0.0
 10
160.376191
 20
145.250002
 30
0.0
  0
LWPOLYLINE
  5
3c2
100
AcDbEntity
  8
0
 62
7
100
AcDbPolyline
 90
2
 70
0
 10
140.376191
 20
40.249983
 30
0.0
 10
180.376193
 20
40.249983
 30
0.0
  0
LWPOLYLINE
  5
3c3
100
AcDbEntity
  8
0
 62
7
100
AcDbPolyline
 90
2
 70
0
 10
140.376191
 20
30.250003
 30
0.0
 10
180.376193
 20
30.250003
 30
0.0
  0
SPLINE
  5
3c4
100
AcDbEntity
  8
0
 62
7
100
AcDbSpline
 70
8
 71
3
 72
8
 73
4
 74
0
 40
0
 40
0
 40
0
 40
0
 40
1
 40
1
 40
1
 40
1
 10
158.235908
 20
67.749996
 30
0.0
 10
158.236093
 20
67.264146
 30
0.0
 10
157.786374
 20
66.815156
 30
0.0
 10
157.056199
 20
66.572200
 30
0.0
  0
SPLINE
  5
3c5
100
AcDbEntity
  8
0
 62
7
100
AcDbSpline
 70
8
 71
3
 72
8
 73
4
 74
0
 40
0
 40
0
 40
0
 40
0
 40
1
 40
1
 40
1
 40
1
 10
157.056199
 20
66.572200
 30
0.0
 10
156.326025
 20
66.329244
 30
0.0
 10
155.426360
 20
66.329244
 30
0.0
 10
154.696186
 20
66.572200
 30
0.0
  0
SPLINE
  5
3c6
100
AcDbEntity
  8
0
 62
7
100
AcDbSpline
 70
8
 71
3
 72
8
 73
4
 74
0
 40
0
 40
0
 40
0
 40
0
 40
1
 40
1
 40
1
 40
1
 10
154.696186
 20
66.572200
 30
0.0
 10
153.966011
 20
66.815156
 30
0.0
 10
153.516292
 20
67.264146
 30
0.0
 10
153.516477
 20
67.749996
 30
0.0
  0
SPLINE
  5
3c7
100
AcDbEntity
  8
0
 62
7
100
AcDbSpline
 70
8
 71
3
 72
8
 73
4
 74
0
 40
0
 40
0
 40
0
 40
0
 40
1
 40
1
 40
1
 40
1
 10
153.516477
 20
67.749996
 30
0.0
 10
153.516292
 20
68.235847
 30
0.0
 10
153.966011
 20
68.684836
 30
0.0
 10
154.696186
 20
68.927792
 30
0.0
  0
SPLINE
  5
3c8
100
AcDbEntity
  8
0
 62
7
100
AcDbSpline
 70
8
 71
3
 72
8
 73
4
 74
0
 40
0
 40
0
 40
0
 40
0
 40
1
 40
1
 40
1
 40
1
 10
154.696186
 20
68.927792
 30
0.0
 10
155.426360
 20
69.170748
 30
0.0
 10
156.326025
 20
69.170748
 30
0.0
 10
157.056199
 20
68.927792
 30
0.0
  0
SPLINE
  5
3c9
100
AcDbEntity
  8
0
 62
7
100
AcDbSpline
 70
8
 71
3
 72
8
 73
4
 74
0
 40
0
 40
0
 40
0
 40
0
 40
1
 40
1
 40
1
 40
1
 10
157.056199
 20
68.927792
 30
0.0
 10
157.786374
 20
68.684836
 30
0.0
 10
158.236093
 20
68.235847
 30
0.0
 10
158.235908
 20
67.749996
 30
0.0
  0
LWPOLYLINE
  5
3ca
100
AcDbEntity
  8
0
 62
7
100
AcDbPolyline
 90
2
 70
0
 10
151.507616
 20
20.252369
 30
0.0
 10
169.507615
 20
20.252369
 30
0.0
  0
SPLINE
  5
3cb
100
AcDbEntity
  8
0
 62
7
100
AcDbSpline
 70
8
 71
3
 72
8
 73
4
 74
0
 40
0
 40
0
 40
0
 40
0
 40
1
 40
1
 40
1
 40
1
 10
167.229496
 20
67.749973
 30
0.0
 10
167.229966
 20
67.266304
 30
0.0
 10
166.781531
 20
66.819260
 30
0.0
 10
166.053223
 20
66.577347
 30
0.0
  0
SPLINE
  5
3cc
100
AcDbEntity
  8
0
 62
7
100
AcDbSpline
 70
8
 71
3
 72
8
 73
4
 74
0
 40
0
 40
0
 40
0
 40
0
 40
1
 40
1
 40
1
 40
1
 10
166.053223
 20
66.577347
 30
0.0
 10
165.324916
 20
66.335435
 30
0.0
 10
164.427468
 20
66.335435
 30
0.0
 10
163.699160
 20
66.577347
 30
0.0
  0
SPLINE
  5
3cd
100
AcDbEntity
  8
0
 62
7
100
AcDbSpline
 70
8
 71
3
 72
8
 73
4
 74
0
 40
0
 40
0
 40
0
 40
0
 40
1
 40
1
 40
1
 40
1
 10
163.699160
 20
66.577347
 30
0.0
 10
162.970852
 20
66.819260
 30
0.0
 10
162.522417
 20
67.266304
 30
0.0
 10
162.522887
 20
67.749973
 30
0.0
  0
SPLINE
  5
3ce
100
AcDbEntity
  8
0
 62
7
100
AcDbSpline
 70
8
 71
3
 72
8
 73
4
 74
0
 40
0
 40
0
 40
0
 40
0
 40
1
 40
1
 40
1
 40
1
 10
162.522887
 20
67.749973
 30
0.0
 10
162.522417
 20
68.233643
 30
0.0
 10
162.970852
 20
68.680687
 30
0.0
 10
163.699160
 20
68.922600
 30
0.0
  0
SPLINE
  5
3cf
100
AcDbEntity
  8
0
 62
7
100
AcDbSpline
 70
8
 71
3
 72
8
 73
4
 74
0
 40
0
 40
0
 40
0
 40
0
 40
1
 40
1
 40
1
 40
1
 10
163.699160
 20
68.922600
 30
0.0
 10
164.427468
 20
69.164512
 30
0.0
 10
165.324916
 20
69.164512
 30
0.0
 10
166.053223
 20
68.922600
 30
0.0
  0
SPLINE
  5
3d0
100
AcDbEntity
  8
0
 62
7
100
AcDbSpline
 70
8
 71
3
 72
8
 73
4
 74
0
 40
0
 40
0
 40
0
 40
0
 40
1
 40
1
 40
1
 40
1
 10
166.053223
 20
68.922600
 30
0.0
 10
166.781531
 20
68.680687
 30
0.0
 10
167.229966
 20
68.233643
 30
0.0
 10
167.229496
 20
67.749973
 30
0.0
  0
LWPOLYLINE
  5
3d1
100
AcDbEntity
  8
0
 62
7
100
AcDbPolyline
 90
2
 70
1
 10
158.235908
 20
67.749996
 30
0.0
 10
158.235908
 20
67.749996
 30
0.0
  0
SPLINE
  5
3d2
100
AcDbEntity
  8
0
 62
7
100
AcDbSpline
 70
8
 71
3
 72
8
 73
4
 74
0
 40
0
 40
0
 40
0
 40
0
 40
1
 40
1
 40
1
 40
1
 10
155.437889
 20
60.187064
 30
0.0
 10
155.437889
 20
60.187064
 30
0.0
 10
158.421443
 20
57.174906
 30
0.0
 10
160.343219
 20
57.157296
 30
0.0
  0
SPLINE
  5
3d3
100
AcDbEntity
  8
0
 62
7
100
AcDbSpline
 70
8
 71
3
 72
8
 73
4
 74
0
 40
0
 40
0
 40
0
 40
0
 40
1
 40
1
 40
1
 40
1
 10
160.343219
 20
57.157296
 30
0.0
 10
162.355585
 20
57.138951
 30
0.0
 10
165.537095
 20
60.235155
 30
0.0
 10
165.537095
 20
60.235155
 30
0.0
  0
SPLINE
  5
3d4
100
AcDbEntity
  8
0
 62
7
100
AcDbSpline
 70
8
 71
3
 72
8
 73
4
 74
0
 40
0
 40
0
 40
0
 40
0
 40
1
 40
1
 40
1
 40
1
 10
165.537095
 20
60.235155
 30
0.0
 10
165.537095
 20
60.235155
 30
0.0
 10
162.133402
 20
59.323803
 30
0.0
 10
160.391309
 20
59.321432
 30
0.0
  0
SPLINE
  5
3d5
100
AcDbEntity
  8
0
 62
7
100
AcDbSpline
 70
8
 71
3
 72
8
 73
4
 74
0
 40
0
 40
0
 40
0
 40
0
 40
1
 40
1
 40
1
 40
1
 10
160.391309
 20
59.321432
 30
0.0
 10
158.715149
 20
59.318610
 30
0.0
 10
155.437889
 20
60.187064
 30
0.0
 10
155.437889
 20
60.187064
 30
0.0
  0
LWPOLYLINE
  5
3d6
100
AcDbEntity
  8
0
 62
7
100
AcDbPolyline
 90
2
 70
1
 10
167.229496
 20
67.749973
 30
0.0
 10
167.229496
 20
67.749973
 30
0.0
  0
SPLINE
  5
3d7
100
AcDbEntity
  8
0
 62
7
100
AcDbSpline
 70
8
 71
3
 72
8
 73
4
 74
0
 40
0
 40
0
 40
0
 40
0
 40
1
 40
1
 40
1
 40
1
 10
159.381005
 20
66.969530
 30
0.0
 10
159.381005
 20
66.969530
 30
0.0
 10
161.058130
 20
65.525797
 30
0.0
 10
161.645186
 20
64.698104
 30
0.0
  0
SPLINE
  5
3d8
100
AcDbEntity
  8
0
 62
7
100
AcDbSpline
 70
8
 71
3
 72
8
 73
4
 74
0
 40
0
 40
0
 40
0
 40
0
 40
1
 40
1
 40
1
 40
1
 10
161.645186
 20
64.698104
 30
0.0
 10
162.232236
 20
63.870411
 30
0.0
 10
162.864363
 20
62.058367
 30
0.0
 10
162.864363
 20
62.058367
 30
0.0
  0
SPLINE
  5
3d9
100
AcDbEntity
  8
0
 62
7
100
AcDbSpline
 70
8
 71
3
 72
8
 73
4
 74
0
 40
0
 40
0
 40
0
 40
0
 40
1
 40
1
 40
1
 40
1
 10
162.864363
 20
62.058367
 30
0.0
 10
162.864363
 20
62.058367
 30
0.0
 10
161.849684
 20
61.813542
 30
0.0
 10
161.383936
 20
61.935578
 30
0.0
  0
SPLINE
  5
3da
100
AcDbEntity
  8
0
 62
7
100
AcDbSpline
 70
8
 71
3
 72
8
 73
4
 74
0
 40
0
 40
0
 40
0
 40
0
 40
1
 40
1
 40
1
 40
1
 10
161.383936
 20
61.935578
 30
0.0
 10
160.941002
 20
62.051658
 30
0.0
 10
160.898460
 20
62.678878
 30
0.0
 10
160.426014
 20
62.672254
 30
0.0
  0
SPLINE
  5
3db
100
AcDbEntity
  8
0
 62
7
100
AcDbSpline
 70
8
 71
3
 72
8
 73
4
 74
0
 40
0
 40
0
 40
0
 40
0
 40
1
 40
1
 40
1
 40
1
 10
160.426014
 20
62.672254
 30
0.0
 10
159.931781
 20
62.665255
 30
0.0
 10
159.468087
 20
61.874211
 30
0.0
 10
159.468087
 20
61.874211
 30
0.0
  0
SPLINE
  5
3dc
100
AcDbEntity
  8
0
 62
7
100
AcDbSpline
 70
8
 71
3
 72
8
 73
4
 74
0
 40
0
 40
0
 40
0
 40
0
 40
1
 40
1
 40
1
 40
1
 10
157.051353
 20
67.650008
 30
0.0
 10
157.051551
 20
67.372937
 30
0.0
 10
156.903849
 20
67.116829
 30
0.0
 10
156.663932
 20
66.978237
 30
0.0
  0
SPLINE
  5
3dd
100
AcDbEntity
  8
0
 62
7
100
AcDbSpline
 70
8
 71
3
 72
8
 73
4
 74
0
 40
0
 40
0
 40
0
 40
0
 40
1
 40
1
 40
1
 40
1
 10
156.663932
 20
66.978237
 30
0.0
 10
156.424015
 20
66.839645
 30
0.0
 10
156.128368
 20
66.839645
 30
0.0
 10
155.888452
 20
66.978237
 30
0.0
  0
SPLINE
  5
3de
100
AcDbEntity
  8
0
 62
7
100
AcDbSpline
 70
8
 71
3
 72
8
 73
4
 74
0
 40
0
 40
0
 40
0
 40
0
 40
1
 40
1
 40
1
 40
1
 10
155.888452
 20
66.978237
 30
0.0
 10
155.648535
 20
67.116829
 30
0.0
 10
155.500833
 20
67.372937
 30
0.0
 10
155.501031
 20
67.650008
 30
0.0
  0
SPLINE
  5
3df
100
AcDbEntity
  8
0
 62
7
100
AcDbSpline
 70
8
 71
3
 72
8
 73
4
 74
0
 40
0
 40
0
 40
0
 40
0
 40
1
 40
1
 40
1
 40
1
 10
155.501031
 20
67.650008
 30
0.0
 10
155.500833
 20
67.927078
 30
0.0
 10
155.648535
 20
68.183186
 30
0.0
 10
155.888452
 20
68.321778
 30
0.0
  0
SPLINE
  5
3e0
100
AcDbEntity
  8
0
 62
7
100
AcDbSpline
 70
8
 71
3
 72
8
 73
4
 74
0
 40
0
 40
0
 40
0
 40
0
 40
1
 40
1
 40
1
 40
1
 10
155.888452
 20
68.321778
 30
0.0
 10
156.128368
 20
68.460370
 30
0.0
 10
156.424015
 20
68.460370
 30
0.0
 10
156.663932
 20
68.321778
 30
0.0
  0
SPLINE
  5
3e1
100
AcDbEntity
  8
0
 62
7
100
AcDbSpline
 70
8
 71
3
 72
8
 73
4
 74
0
 40
0
 40
0
 40
0
 40
0
 40
1
 40
1
 40
1
 40
1
 10
156.663932
 20
68.321778
 30
0.0
 10
156.903849
 20
68.183186
 30
0.0
 10
157.051551
 20
67.927078
 30
0.0
 10
157.051353
 20
67.650008
 30
0.0
  0
LWPOLYLINE
  5
3e2
100
AcDbEntity
  8
0
 62
7
100
AcDbPolyline
 90
2
 70
1
 10
155.437889
 20
60.187064
 30
0.0
 10
155.437889
 20
60.187064
 30
0.0
  0
SPLINE
  5
3e3
100
AcDbEntity
  8
0
 62
7
100
AcDbSpline
 70
8
 71
3
 72
8
 73
4
 74
0
 40
0
 40
0
 40
0
 40
0
 40
1
 40
1
 40
1
 40
1
 10
166.041005
 20
67.649999
 30
0.0
 10
166.041320
 20
67.376548
 30
0.0
 10
165.895616
 20
67.123734
 30
0.0
 10
165.658853
 20
66.986918
 30
0.0
  0
SPLINE
  5
3e4
100
AcDbEntity
  8
0
 62
7
100
AcDbSpline
 70
8
 71
3
 72
8
 73
4
 74
0
 40
0
 40
0
 40
0
 40
0
 40
1
 40
1
 40
1
 40
1
 10
165.658853
 20
66.986918
 30
0.0
 10
165.422090
 20
66.850101
 30
0.0
 10
165.130295
 20
66.850101
 30
0.0
 10
164.893532
 20
66.986918
 30
0.0
  0
SPLINE
  5
3e5
100
AcDbEntity
  8
0
 62
7
100
AcDbSpline
 70
8
 71
3
 72
8
 73
4
 74
0
 40
0
 40
0
 40
0
 40
0
 40
1
 40
1
 40
1
 40
1
 10
164.893532
 20
66.986918
 30
0.0
 10
164.656769
 20
67.123734
 30
0.0
 10
164.511066
 20
67.376548
 30
0.0
 10
164.511381
 20
67.649999
 30
0.0
  0
SPLINE
  5
3e6
100
AcDbEntity
  8
0
 62
7
100
AcDbSpline
 70
8
 71
3
 72
8
 73
4
 74
0
 40
0
 40
0
 40
0
 40
0
 40
1
 40
1
 40
1
 40
1
 10
164.511381
 20
67.649999
 30
0.0
 10
164.511066
 20
67.923450
 30
0.0
 10
164.656769
 20
68.176264
 30
0.0
 10
164.893532
 20
68.313080
 30
0.0
  0
SPLINE
  5
3e7
100
AcDbEntity
  8
0
 62
7
100
AcDbSpline
 70
8
 71
3
 72
8
 73
4
 74
0
 40
0
 40
0
 40
0
 40
0
 40
1
 40
1
 40
1
 40
1
 10
164.893532
 20
68.313080
 30
0.0
 10
165.130295
 20
68.449897
 30
0.0
 10
165.422090
 20
68.449897
 30
0.0
 10
165.658853
 20
68.313080
 30
0.0
  0
SPLINE
  5
3e8
100
AcDbEntity
  8
0
 62
7
100
AcDbSpline
 70
8
 71
3
 72
8
 73
4
 74
0
 40
0
 40
0
 40
0
 40
0
 40
1
 40
1
 40
1
 40
1
 10
165.658853
 20
68.313080
 30
0.0
 10
165.895616
 20
68.176264
 30
0.0
 10
166.041320
 20
67.923450
 30
0.0
 10
166.041005
 20
67.649999
 30
0.0
  0
LWPOLYLINE
  5
3e9
100
AcDbEntity
  8
0
 62
7
100
AcDbPolyline
 90
2
 70
1
 10
157.051353
 20
67.650008
 30
0.0
 10
157.051353
 20
67.650008
 30
0.0
  0
SPLINE
  5
3ea
100
AcDbEntity
  8
0
 62
1
100
AcDbSpline
 70
8
 71
3
 72
8
 73
4
 74
0
 40
0
 40
0
 40
0
 40
0
 40
1
 40
1
 40
1
 40
1
 10
206.800877
 20
311.567356
 30
0.0
 10
201.530417
 20
311.567356
 30
0.0
 10
196.076500
 20
319.649049
 30
0.0
 10
191.800879
 20
316.567357
 30
0.0
  0
SPLINE
  5
3eb
100
AcDbEntity
  8
0
 62
1
100
AcDbSpline
 70
8
 71
3
 72
8
 73
4
 74
0
 40
0
 40
0
 40
0
 40
0
 40
1
 40
1
 40
1
 40
1
 10
191.800879
 20
316.567357
 30
0.0
 10
183.688456
 20
310.720255
 30
0.0
 10
191.302742
 20
296.554943
 30
0.0
 10
191.800879
 20
286.567355
 30
0.0
  0
SPLINE
  5
3ec
100
AcDbEntity
  8
0
 62
1
100
AcDbSpline
 70
8
 71
3
 72
8
 73
4
 74
0
 40
0
 40
0
 40
0
 40
0
 40
1
 40
1
 40
1
 40
1
 10
191.800879
 20
286.567355
 30
0.0
 10
192.459989
 20
273.352260
 30
0.0
 10
195.197883
 20
249.814569
 30
0.0
 10
196.318986
 20
240.509504
 30
0.0
  0
SPLINE
  5
3ed
100
AcDbEntity
  8
0
 62
1
100
AcDbSpline
 70
8
 71
3
 72
8
 73
4
 74
0
 40
0
 40
0
 40
0
 40
0
 40
1
 40
1
 40
1
 40
1
 10
196.318986
 20
240.509504
 30
0.0
 10
196.617089
 20
238.035285
 30
0.0
 10
198.052680
 20
236.998079
 30
0.0
 10
196.800877
 20
236.567354
 30
0.0
  0
SPLINE
  5
3ee
100
AcDbEntity
  8
0
 62
1
100
AcDbSpline
 70
8
 71
3
 72
8
 73
4
 74
0
 40
0
 40
0
 40
0
 40
0
 40
1
 40
1
 40
1
 40
1
 10
196.800877
 20
236.567354
 30
0.0
 10
195.692836
 20
236.186094
 30
0.0
 10
196.033363
 20
238.172329
 30
0.0
 10
194.990010
 20
239.580454
 30
0.0
  0
SPLINE
  5
3ef
100
AcDbEntity
  8
0
 62
1
100
AcDbSpline
 70
8
 71
3
 72
8
 73
4
 74
0
 40
0
 40
0
 40
0
 40
0
 40
1
 40
1
 40
1
 40
1
 10
194.990010
 20
239.580454
 30
0.0
 10
194.032593
 20
240.872597
 30
0.0
 10
192.842911
 20
241.998980
 30
0.0
 10
191.800876
 20
241.567355
 30
0.0
  0
SPLINE
  5
3f0
100
AcDbEntity
  8
0
 62
1
100
AcDbSpline
 70
8
 71
3
 72
8
 73
4
 74
0
 40
0
 40
0
 40
0
 40
0
 40
1
 40
1
 40
1
 40
1
 10
191.800876
 20
241.567355
 30
0.0
 10
187.181480
 20
239.653939
 30
0.0
 10
187.181477
 20
228.480767
 30
0.0
 10
191.800879
 20
226.567354
 30
0.0
  0
SPLINE
  5
3f1
100
AcDbEntity
  8
0
 62
1
100
AcDbSpline
 70
8
 71
3
 72
8
 73
4
 74
0
 40
0
 40
0
 40
0
 40
0
 40
1
 40
1
 40
1
 40
1
 10
191.800879
 20
226.567354
 30
0.0
 10
193.096733
 20
226.030596
 30
0.0
 10
194.620922
 20
227.903284
 30
0.0
 10
195.642798
 20
229.507858
 30
0.0
  0
SPLINE
  5
3f2
100
AcDbEntity
  8
0
 62
1
100
AcDbSpline
 70
8
 71
3
 72
8
 73
4
 74
0
 40
0
 40
0
 40
0
 40
0
 40
1
 40
1
 40
1
 40
1
 10
195.642798
 20
229.507858
 30
0.0
 10
196.338123
 20
230.599675
 30
0.0
 10
196.016858
 20
231.642257
 30
0.0
 10
196.800877
 20
231.567355
 30
0.0
  0
SPLINE
  5
3f3
100
AcDbEntity
  8
0
 62
1
100
AcDbSpline
 70
8
 71
3
 72
8
 73
4
 74
0
 40
0
 40
0
 40
0
 40
0
 40
1
 40
1
 40
1
 40
1
 10
196.800877
 20
231.567355
 30
0.0
 10
197.519409
 20
231.498708
 30
0.0
 10
197.485639
 20
229.513068
 30
0.0
 10
197.485639
 20
229.513068
 30
0.0
  0
LWPOLYLINE
  5
3f4
100
AcDbEntity
  8
0
 62
7
100
AcDbPolyline
 90
2
 70
1
 10
166.041005
 20
67.649999
 30
0.0
 10
166.041005
 20
67.649999
 30
0.0
  0
SPLINE
  5
3f5
100
AcDbEntity
  8
0
 62
1
100
AcDbSpline
 70
8
 71
3
 72
8
 73
4
 74
0
 40
0
 40
0
 40
0
 40
0
 40
1
 40
1
 40
1
 40
1
 10
201.158462
 20
218.494607
 30
0.0
 10
201.819462
 20
217.349722
 30
0.0
 10
201.454524
 20
216.567357
 30
0.0
 10
200.961313
 20
216.567357
 30
0.0
  0
LWPOLYLINE
  5
3f6
100
AcDbEntity
  8
0
 62
1
100
AcDbPolyline
 90
2
 70
1
 10
197.485639
 20
229.513068
 30
0.0
 10
201.158462
 20
218.494607
 30
0.0
  0
SPLINE
  5
3f7
100
AcDbEntity
  8
0
 62
1
100
AcDbSpline
 70
8
 71
3
 72
8
 73
4
 74
0
 40
0
 40
0
 40
0
 40
0
 40
1
 40
1
 40
1
 40
1
 10
186.800878
 20
216.567357
 30
0.0
 10
186.800878
 20
216.567357
 30
0.0
 10
184.886271
 20
199.677765
 30
0.0
 10
186.800878
 20
191.567356
 30
0.0
  0
SPLINE
  5
3f8
100
AcDbEntity
  8
0
 62
1
100
AcDbSpline
 70
8
 71
3
 72
8
 73
4
 74
0
 40
0
 40
0
 40
0
 40
0
 40
1
 40
1
 40
1
 40
1
 10
186.800878
 20
191.567356
 30
0.0
 10
187.657117
 20
187.940273
 30
0.0
 10
188.122222
 20
182.164321
 30
0.0
 10
191.800879
 20
181.567357
 30
0.0
  0
SPLINE
  5
3f9
100
AcDbEntity
  8
0
 62
1
100
AcDbSpline
 70
8
 71
3
 72
8
 73
4
 74
0
 40
0
 40
0
 40
0
 40
0
 40
1
 40
1
 40
1
 40
1
 10
191.800879
 20
181.567357
 30
0.0
 10
193.154151
 20
181.347751
 30
0.0
 10
194.624766
 20
183.075236
 30
0.0
 10
195.618372
 20
184.559033
 30
0.0
  0
SPLINE
  5
3fa
100
AcDbEntity
  8
0
 62
1
100
AcDbSpline
 70
8
 71
3
 72
8
 73
4
 74
0
 40
0
 40
0
 40
0
 40
0
 40
1
 40
1
 40
1
 40
1
 10
195.618372
 20
184.559033
 30
0.0
 10
196.333001
 20
185.626223
 30
0.0
 10
196.051349
 20
186.771630
 30
0.0
 10
196.800877
 20
186.567358
 30
0.0
  0
SPLINE
  5
3fb
100
AcDbEntity
  8
0
 62
1
100
AcDbSpline
 70
8
 71
3
 72
8
 73
4
 74
0
 40
0
 40
0
 40
0
 40
0
 40
1
 40
1
 40
1
 40
1
 10
196.800877
 20
186.567358
 30
0.0
 10
200.016912
 20
185.690877
 30
0.0
 10
198.553316
 20
179.402859
 30
0.0
 10
196.800877
 20
176.567358
 30
0.0
  0
SPLINE
  5
3fc
100
AcDbEntity
  8
0
 62
1
100
AcDbSpline
 70
8
 71
3
 72
8
 73
4
 74
0
 40
0
 40
0
 40
0
 40
0
 40
1
 40
1
 40
1
 40
1
 10
196.800877
 20
176.567358
 30
0.0
 10
194.841595
 20
173.397167
 30
0.0
 10
188.760163
 20
174.737545
 30
0.0
 10
186.800878
 20
171.567357
 30
0.0
  0
SPLINE
  5
3fd
100
AcDbEntity
  8
0
 62
1
100
AcDbSpline
 70
8
 71
3
 72
8
 73
4
 74
0
 40
0
 40
0
 40
0
 40
0
 40
1
 40
1
 40
1
 40
1
 10
186.800878
 20
171.567357
 30
0.0
 10
185.924659
 20
170.149605
 30
0.0
 10
186.800878
 20
166.567355
 30
0.0
 10
186.800878
 20
166.567355
 30
0.0
  0
LWPOLYLINE
  5
3fe
100
AcDbEntity
  8
0
 62
1
100
AcDbPolyline
 90
3
 70
1
 10
200.961313
 20
216.567357
 30
0.0
 10
198.963075
 20
216.567357
 30
0.0
 10
186.800878
 20
216.567357
 30
0.0
  0
SPLINE
  5
3ff
100
AcDbEntity
  8
0
 62
1
100
AcDbSpline
 70
8
 71
3
 72
8
 73
4
 74
0
 40
0
 40
0
 40
0
 40
0
 40
1
 40
1
 40
1
 40
1
 10
226.800879
 20
166.567355
 30
0.0
 10
226.800879
 20
166.567355
 30
0.0
 10
227.677098
 20
170.149605
 30
0.0
 10
226.800879
 20
171.567357
 30
0.0
  0
SPLINE
  5
400
100
AcDbEntity
  8
0
 62
1
100
AcDbSpline
 70
8
 71
3
 72
8
 73
4
 74
0
 40
0
 40
0
 40
0
 40
0
 40
1
 40
1
 40
1
 40
1
 10
226.800879
 20
171.567357
 30
0.0
 10
224.841594
 20
174.737545
 30
0.0
 10
218.760162
 20
173.397167
 30
0.0
 10
216.800880
 20
176.567358
 30
0.0
  0
SPLINE
  5
401
100
AcDbEntity
  8
0
 62
1
100
AcDbSpline
 70
8
 71
3
 72
8
 73
4
 74
0
 40
0
 40
0
 40
0
 40
0
 40
1
 40
1
 40
1
 40
1
 10
216.800880
 20
176.567358
 30
0.0
 10
215.048440
 20
179.402859
 30
0.0
 10
213.584678
 20
185.691484
 30
0.0
 10
216.800880
 20
186.567358
 30
0.0
  0
SPLINE
  5
402
100
AcDbEntity
  8
0
 62
1
100
AcDbSpline
 70
8
 71
3
 72
8
 73
4
 74
0
 40
0
 40
0
 40
0
 40
0
 40
1
 40
1
 40
1
 40
1
 10
216.800880
 20
186.567358
 30
0.0
 10
217.545551
 20
186.770154
 30
0.0
 10
217.265059
 20
185.633662
 30
0.0
 10
217.974910
 20
184.571705
 30
0.0
  0
SPLINE
  5
403
100
AcDbEntity
  8
0
 62
1
100
AcDbSpline
 70
8
 71
3
 72
8
 73
4
 74
0
 40
0
 40
0
 40
0
 40
0
 40
1
 40
1
 40
1
 40
1
 10
217.974910
 20
184.571705
 30
0.0
 10
218.968614
 20
183.085091
 30
0.0
 10
220.443750
 20
181.347124
 30
0.0
 10
221.800878
 20
181.567357
 30
0.0
  0
SPLINE
  5
404
100
AcDbEntity
  8
0
 62
1
100
AcDbSpline
 70
8
 71
3
 72
8
 73
4
 74
0
 40
0
 40
0
 40
0
 40
0
 40
1
 40
1
 40
1
 40
1
 10
221.800878
 20
181.567357
 30
0.0
 10
225.479535
 20
182.164321
 30
0.0
 10
225.944640
 20
187.940273
 30
0.0
 10
226.800879
 20
191.567356
 30
0.0
  0
SPLINE
  5
405
100
AcDbEntity
  8
0
 62
1
100
AcDbSpline
 70
8
 71
3
 72
8
 73
4
 74
0
 40
0
 40
0
 40
0
 40
0
 40
1
 40
1
 40
1
 40
1
 10
226.800879
 20
191.567356
 30
0.0
 10
228.715486
 20
199.677765
 30
0.0
 10
226.800879
 20
216.567357
 30
0.0
 10
226.800879
 20
216.567357
 30
0.0
  0
LWPOLYLINE
  5
406
100
AcDbEntity
  8
0
 62
1
100
AcDbPolyline
 90
2
 70
1
 10
186.800878
 20
166.567355
 30
0.0
 10
226.800879
 20
166.567355
 30
0.0
  0
SPLINE
  5
407
100
AcDbEntity
  8
0
 62
1
100
AcDbSpline
 70
8
 71
3
 72
8
 73
4
 74
0
 40
0
 40
0
 40
0
 40
0
 40
1
 40
1
 40
1
 40
1
 10
212.894461
 20
216.567357
 30
0.0
 10
212.894461
 20
216.567357
 30
0.0
 10
212.056810
 20
217.335154
 30
0.0
 10
212.460254
 20
218.545484
 30
0.0
  0
LWPOLYLINE
  5
408
100
AcDbEntity
  8
0
 62
1
100
AcDbPolyline
 90
3
 70
1
 10
226.800879
 20
216.567357
 30
0.0
 10
214.948988
 20
216.567357
 30
0.0
 10
212.894461
 20
216.567357
 30
0.0
  0
SPLINE
  5
409
100
AcDbEntity
  8
0
 62
1
100
AcDbSpline
 70
8
 71
3
 72
8
 73
4
 74
0
 40
0
 40
0
 40
0
 40
0
 40
1
 40
1
 40
1
 40
1
 10
216.104931
 20
229.479509
 30
0.0
 10
216.104931
 20
229.479509
 30
0.0
 10
216.070610
 20
231.497584
 30
0.0
 10
216.800880
 20
231.567355
 30
0.0
  0
SPLINE
  5
40a
100
AcDbEntity
  8
0
 62
1
100
AcDbSpline
 70
8
 71
3
 72
8
 73
4
 74
0
 40
0
 40
0
 40
0
 40
0
 40
1
 40
1
 40
1
 40
1
 10
216.800880
 20
231.567355
 30
0.0
 10
217.585026
 20
231.642274
 30
0.0
 10
217.263727
 20
230.599483
 30
0.0
 10
217.959165
 20
229.507534
 30
0.0
  0
SPLINE
  5
40b
100
AcDbEntity
  8
0
 62
1
100
AcDbSpline
 70
8
 71
3
 72
8
 73
4
 74
0
 40
0
 40
0
 40
0
 40
0
 40
1
 40
1
 40
1
 40
1
 10
217.959165
 20
229.507534
 30
0.0
 10
218.981041
 20
227.903030
 30
0.0
 10
220.505111
 20
226.030632
 30
0.0
 10
221.800878
 20
226.567354
 30
0.0
  0
SPLINE
  5
40c
100
AcDbEntity
  8
0
 62
1
100
AcDbSpline
 70
8
 71
3
 72
8
 73
4
 74
0
 40
0
 40
0
 40
0
 40
0
 40
1
 40
1
 40
1
 40
1
 10
221.800878
 20
226.567354
 30
0.0
 10
226.420277
 20
228.480764
 30
0.0
 10
226.420274
 20
239.653939
 30
0.0
 10
221.800878
 20
241.567355
 30
0.0
  0
SPLINE
  5
40d
100
AcDbEntity
  8
0
 62
1
100
AcDbSpline
 70
8
 71
3
 72
8
 73
4
 74
0
 40
0
 40
0
 40
0
 40
0
 40
1
 40
1
 40
1
 40
1
 10
221.800878
 20
241.567355
 30
0.0
 10
220.476627
 20
242.115879
 30
0.0
 10
218.913923
 20
240.148195
 30
0.0
 10
217.892510
 20
238.521779
 30
0.0
  0
SPLINE
  5
40e
100
AcDbEntity
  8
0
 62
1
100
AcDbSpline
 70
8
 71
3
 72
8
 73
4
 74
0
 40
0
 40
0
 40
0
 40
0
 40
1
 40
1
 40
1
 40
1
 10
217.892510
 20
238.521779
 30
0.0
 10
217.234308
 20
237.473708
 30
0.0
 10
217.510141
 20
236.335460
 30
0.0
 10
216.800880
 20
236.567354
 30
0.0
  0
SPLINE
  5
40f
100
AcDbEntity
  8
0
 62
1
100
AcDbSpline
 70
8
 71
3
 72
8
 73
4
 74
0
 40
0
 40
0
 40
0
 40
0
 40
1
 40
1
 40
1
 40
1
 10
216.800880
 20
236.567354
 30
0.0
 10
216.178577
 20
236.770816
 30
0.0
 10
216.888589
 20
237.267889
 30
0.0
 10
217.041102
 20
238.516764
 30
0.0
  0
SPLINE
  5
410
100
AcDbEntity
  8
0
 62
1
100
AcDbSpline
 70
8
 71
3
 72
8
 73
4
 74
0
 40
0
 40
0
 40
0
 40
0
 40
1
 40
1
 40
1
 40
1
 10
217.041102
 20
238.516764
 30
0.0
 10
217.939643
 20
245.874614
 30
0.0
 10
221.087581
 20
272.265812
 30
0.0
 10
221.800878
 20
286.567355
 30
0.0
  0
SPLINE
  5
411
100
AcDbEntity
  8
0
 62
1
100
AcDbSpline
 70
8
 71
3
 72
8
 73
4
 74
0
 40
0
 40
0
 40
0
 40
0
 40
1
 40
1
 40
1
 40
1
 10
221.800878
 20
286.567355
 30
0.0
 10
222.299014
 20
296.554943
 30
0.0
 10
229.913299
 20
310.720255
 30
0.0
 10
221.800878
 20
316.567357
 30
0.0
  0
SPLINE
  5
412
100
AcDbEntity
  8
0
 62
1
100
AcDbSpline
 70
8
 71
3
 72
8
 73
4
 74
0
 40
0
 40
0
 40
0
 40
0
 40
1
 40
1
 40
1
 40
1
 10
221.800878
 20
316.567357
 30
0.0
 10
217.525257
 20
319.649049
 30
0.0
 10
212.071340
 20
311.567356
 30
0.0
 10
206.800877
 20
311.567356
 30
0.0
  0
LWPOLYLINE
  5
413
100
AcDbEntity
  8
0
 62
1
100
AcDbPolyline
 90
2
 70
1
 10
212.460254
 20
218.545484
 30
0.0
 10
216.104931
 20
229.479509
 30
0.0
  0
LWPOLYLINE
  5
414
100
AcDbEntity
  8
0
 62
1
100
AcDbPolyline
 90
2
 70
1
 10
206.800877
 20
311.567356
 30
0.0
 10
206.800877
 20
311.567356
 30
0.0
  0
LWPOLYLINE
  5
415
100
AcDbEntity
  8
0
 62
7
100
AcDbPolyline
 90
2
 70
0
 10
186.800878
 20
206.567338
 30
0.0
 10
226.800879
 20
206.567338
 30
0.0
  0
LWPOLYLINE
  5
416
100
AcDbEntity
  8
0
 62
7
100
AcDbPolyline
 90
2
 70
0
 10
186.800878
 20
196.567358
 30
0.0
 10
226.800879
 20
196.567358
 30
0.0
  0
SPLINE
  5
417
100
AcDbEntity
  8
0
 62
7
100
AcDbSpline
 70
8
 71
3
 72
8
 73
4
 74
0
 40
0
 40
0
 40
0
 40
0
 40
1
 40
1
 40
1
 40
1
 10
204.660595
 20
234.067350
 30
0.0
 10
204.660779
 20
233.581500
 30
0.0
 10
204.211060
 20
233.132510
 30
0.0
 10
203.480886
 20
232.889554
 30
0.0
  0
SPLINE
  5
418
100
AcDbEntity
  8
0
 62
7
100
AcDbSpline
 70
8
 71
3
 72
8
 73
4
 74
0
 40
0
 40
0
 40
0
 40
0
 40
1
 40
1
 40
1
 40
1
 10
203.480886
 20
232.889554
 30
0.0
 10
202.750711
 20
232.646598
 30
0.0
 10
201.851046
 20
232.646598
 30
0.0
 10
201.120872
 20
232.889554
 30
0.0
  0
SPLINE
  5
419
100
AcDbEntity
  8
0
 62
7
100
AcDbSpline
 70
8
 71
3
 72
8
 73
4
 74
0
 40
0
 40
0
 40
0
 40
0
 40
1
 40
1
 40
1
 40
1
 10
201.120872
 20
232.889554
 30
0.0
 10
200.390698
 20
233.132510
 30
0.0
 10
199.940979
 20
233.581500
 30
0.0
 10
199.941163
 20
234.067350
 30
0.0
  0
SPLINE
  5
41a
100
AcDbEntity
  8
0
 62
7
100
AcDbSpline
 70
8
 71
3
 72
8
 73
4
 74
0
 40
0
 40
0
 40
0
 40
0
 40
1
 40
1
 40
1
 40
1
 10
199.941163
 20
234.067350
 30
0.0
 10
199.940979
 20
234.553201
 30
0.0
 10
200.390698
 20
235.002191
 30
0.0
 10
201.120872
 20
235.245147
 30
0.0
  0
SPLINE
  5
41b
100
AcDbEntity
  8
0
 62
7
100
AcDbSpline
 70
8
 71
3
 72
8
 73
4
 74
0
 40
0
 40
0
 40
0
 40
0
 40
1
 40
1
 40
1
 40
1
 10
201.120872
 20
235.245147
 30
0.0
 10
201.851046
 20
235.488102
 30
0.0
 10
202.750711
 20
235.488102
 30
0.0
 10
203.480886
 20
235.245147
 30
0.0
  0
SPLINE
  5
41c
100
AcDbEntity
  8
0
 62
7
100
AcDbSpline
 70
8
 71
3
 72
8
 73
4
 74
0
 40
0
 40
0
 40
0
 40
0
 40
1
 40
1
 40
1
 40
1
 10
203.480886
 20
235.245147
 30
0.0
 10
204.211060
 20
235.002191
 30
0.0
 10
204.660779
 20
234.553201
 30
0.0
 10
204.660595
 20
234.067350
 30
0.0
  0
LWPOLYLINE
  5
41d
100
AcDbEntity
  8
0
 62
7
100
AcDbPolyline
 90
2
 70
0
 10
197.932302
 20
186.569723
 30
0.0
 10
215.932301
 20
186.569723
 30
0.0
  0
SPLINE
  5
41e
100
AcDbEntity
  8
0
 62
7
100
AcDbSpline
 70
8
 71
3
 72
8
 73
4
 74
0
 40
0
 40
0
 40
0
 40
0
 40
1
 40
1
 40
1
 40
1
 10
213.654183
 20
234.067328
 30
0.0
 10
213.654652
 20
233.583658
 30
0.0
 10
213.206218
 20
233.136614
 30
0.0
 10
212.477910
 20
232.894701
 30
0.0
  0
SPLINE
  5
41f
100
AcDbEntity
  8
0
 62
7
100
AcDbSpline
 70
8
 71
3
 72
8
 73
4
 74
0
 40
0
 40
0
 40
0
 40
0
 40
1
 40
1
 40
1
 40
1
 10
212.477910
 20
232.894701
 30
0.0
 10
211.749602
 20
232.652789
 30
0.0
 10
210.852154
 20
232.652789
 30
0.0
 10
210.123846
 20
232.894701
 30
0.0
  0
SPLINE
  5
420
100
AcDbEntity
  8
0
 62
7
100
AcDbSpline
 70
8
 71
3
 72
8
 73
4
 74
0
 40
0
 40
0
 40
0
 40
0
 40
1
 40
1
 40
1
 40
1
 10
210.123846
 20
232.894701
 30
0.0
 10
209.395538
 20
233.136614
 30
0.0
 10
208.947104
 20
233.583658
 30
0.0
 10
208.947573
 20
234.067328
 30
0.0
  0
SPLINE
  5
421
100
AcDbEntity
  8
0
 62
7
100
AcDbSpline
 70
8
 71
3
 72
8
 73
4
 74
0
 40
0
 40
0
 40
0
 40
0
 40
1
 40
1
 40
1
 40
1
 10
208.947573
 20
234.067328
 30
0.0
 10
208.947104
 20
234.550997
 30
0.0
 10
209.395538
 20
234.998041
 30
0.0
 10
210.123846
 20
235.239954
 30
0.0
  0
SPLINE
  5
422
100
AcDbEntity
  8
0
 62
7
100
AcDbSpline
 70
8
 71
3
 72
8
 73
4
 74
0
 40
0
 40
0
 40
0
 40
0
 40
1
 40
1
 40
1
 40
1
 10
210.123846
 20
235.239954
 30
0.0
 10
210.852154
 20
235.481867
 30
0.0
 10
211.749602
 20
235.481867
 30
0.0
 10
212.477910
 20
235.239954
 30
0.0
  0
SPLINE
  5
423
100
AcDbEntity
  8
0
 62
7
100
AcDbSpline
 70
8
 71
3
 72
8
 73
4
 74
0
 40
0
 40
0
 40
0
 40
0
 40
1
 40
1
 40
1
 40
1
 10
212.477910
 20
235.239954
 30
0.0
 10
213.206218
 20
234.998041
 30
0.0
 10
213.654652
 20
234.550997
 30
0.0
 10
213.654183
 20
234.067328
 30
0.0
  0
LWPOLYLINE
  5
424
100
AcDbEntity
  8
0
 62
7
100
AcDbPolyline
 90
2
 70
1
 10
204.660595
 20
234.067350
 30
0.0
 10
204.660595
 20
234.067350
 30
0.0
  0
SPLINE
  5
425
100
AcDbEntity
  8
0
 62
7
100
AcDbSpline
 70
8
 71
3
 72
8
 73
4
 74
0
 40
0
 40
0
 40
0
 40
0
 40
1
 40
1
 40
1
 40
1
 10
201.862575
 20
226.504418
 30
0.0
 10
201.862575
 20
226.504418
 30
0.0
 10
204.846130
 20
223.492261
 30
0.0
 10
206.767905
 20
223.474650
 30
0.0
  0
SPLINE
  5
426
100
AcDbEntity
  8
0
 62
7
100
AcDbSpline
 70
8
 71
3
 72
8
 73
4
 74
0
 40
0
 40
0
 40
0
 40
0
 40
1
 40
1
 40
1
 40
1
 10
206.767905
 20
223.474650
 30
0.0
 10
208.780271
 20
223.456306
 30
0.0
 10
211.961782
 20
226.552509
 30
0.0
 10
211.961782
 20
226.552509
 30
0.0
  0
SPLINE
  5
427
100
AcDbEntity
  8
0
 62
7
100
AcDbSpline
 70
8
 71
3
 72
8
 73
4
 74
0
 40
0
 40
0
 40
0
 40
0
 40
1
 40
1
 40
1
 40
1
 10
211.961782
 20
226.552509
 30
0.0
 10
211.961782
 20
226.552509
 30
0.0
 10
208.558089
 20
225.641157
 30
0.0
 10
206.815996
 20
225.638786
 30
0.0
  0
SPLINE
  5
428
100
AcDbEntity
  8
0
 62
7
100
AcDbSpline
 70
8
 71
3
 72
8
 73
4
 74
0
 40
0
 40
0
 40
0
 40
0
 40
1
 40
1
 40
1
 40
1
 10
206.815996
 20
225.638786
 30
0.0
 10
205.139836
 20
225.635964
 30
0.0
 10
201.862575
 20
226.504418
 30
0.0
 10
201.862575
 20
226.504418
 30
0.0
  0
LWPOLYLINE
  5
429
100
AcDbEntity
  8
0
 62
7
100
AcDbPolyline
 90
2
 70
1
 10
213.654183
 20
234.067328
 30
0.0
 10
213.654183
 20
234.067328
 30
0.0
  0
SPLINE
  5
42a
100
AcDbEntity
  8
0
 62
7
100
AcDbSpline
 70
8
 71
3
 72
8
 73
4
 74
0
 40
0
 40
0
 40
0
 40
0
 40
1
 40
1
 40
1
 40
1
 10
205.805691
 20
233.286885
 30
0.0
 10
205.805691
 20
233.286885
 30
0.0
 10
207.482816
 20
231.843151
 30
0.0
 10
208.069872
 20
231.015458
 30
0.0
  0
SPLINE
  5
42b
100
AcDbEntity
  8
0
 62
7
100
AcDbSpline
 70
8
 71
3
 72
8
 73
4
 74
0
 40
0
 40
0
 40
0
 40
0
 40
1
 40
1
 40
1
 40
1
 10
208.069872
 20
231.015458
 30
0.0
 10
208.656923
 20
230.187766
 30
0.0
 10
209.289050
 20
228.375721
 30
0.0
 10
209.289050
 20
228.375721
 30
0.0
  0
SPLINE
  5
42c
100
AcDbEntity
  8
0
 62
7
100
AcDbSpline
 70
8
 71
3
 72
8
 73
4
 74
0
 40
0
 40
0
 40
0
 40
0
 40
1
 40
1
 40
1
 40
1
 10
209.289050
 20
228.375721
 30
0.0
 10
209.289050
 20
228.375721
 30
0.0
 10
208.274371
 20
228.130896
 30
0.0
 10
207.808622
 20
228.252932
 30
0.0
  0
SPLINE
  5
42d
100
AcDbEntity
  8
0
 62
7
100
AcDbSpline
 70
8
 71
3
 72
8
 73
4
 74
0
 40
0
 40
0
 40
0
 40
0
 40
1
 40
1
 40
1
 40
1
 10
207.808622
 20
228.252932
 30
0.0
 10
207.365688
 20
228.369013
 30
0.0
 10
207.323146
 20
228.996232
 30
0.0
 10
206.850701
 20
228.989608
 30
0.0
  0
SPLINE
  5
42e
100
AcDbEntity
  8
0
 62
7
100
AcDbSpline
 70
8
 71
3
 72
8
 73
4
 74
0
 40
0
 40
0
 40
0
 40
0
 40
1
 40
1
 40
1
 40
1
 10
206.850701
 20
228.989608
 30
0.0
 10
206.356467
 20
228.982609
 30
0.0
 10
205.892773
 20
228.191565
 30
0.0
 10
205.892773
 20
228.191565
 30
0.0
  0
SPLINE
  5
42f
100
AcDbEntity
  8
0
 62
7
100
AcDbSpline
 70
8
 71
3
 72
8
 73
4
 74
0
 40
0
 40
0
 40
0
 40
0
 40
1
 40
1
 40
1
 40
1
 10
203.476039
 20
233.967362
 30
0.0
 10
203.476237
 20
233.690292
 30
0.0
 10
203.328535
 20
233.434184
 30
0.0
 10
203.088618
 20
233.295591
 30
0.0
  0
SPLINE
  5
430
100
AcDbEntity
  8
0
 62
7
100
AcDbSpline
 70
8
 71
3
 72
8
 73
4
 74
0
 40
0
 40
0
 40
0
 40
0
 40
1
 40
1
 40
1
 40
1
 10
203.088618
 20
233.295591
 30
0.0
 10
202.848702
 20
233.156999
 30
0.0
 10
202.553055
 20
233.156999
 30
0.0
 10
202.313138
 20
233.295591
 30
0.0
  0
SPLINE
  5
431
100
AcDbEntity
  8
0
 62
7
100
AcDbSpline
 70
8
 71
3
 72
8
 73
4
 74
0
 40
0
 40
0
 40
0
 40
0
 40
1
 40
1
 40
1
 40
1
 10
202.313138
 20
233.295591
 30
0.0
 10
202.073221
 20
233.434184
 30
0.0
 10
201.925520
 20
233.690292
 30
0.0
 10
201.925717
 20
233.967362
 30
0.0
  0
SPLINE
  5
432
100
AcDbEntity
  8
0
 62
7
100
AcDbSpline
 70
8
 71
3
 72
8
 73
4
 74
0
 40
0
 40
0
 40
0
 40
0
 40
1
 40
1
 40
1
 40
1
 10
201.925717
 20
233.967362
 30
0.0
 10
201.925520
 20
234.244432
 30
0.0
 10
202.073221
 20
234.500540
 30
0.0
 10
202.313138
 20
234.639132
 30
0.0
  0
SPLINE
  5
433
100
AcDbEntity
  8
0
 62
7
100
AcDbSpline
 70
8
 71
3
 72
8
 73
4
 74
0
 40
0
 40
0
 40
0
 40
0
 40
1
 40
1
 40
1
 40
1
 10
202.313138
 20
234.639132
 30
0.0
 10
202.553055
 20
234.777724
 30
0.0
 10
202.848702
 20
234.777724
 30
0.0
 10
203.088618
 20
234.639132
 30
0.0
  0
SPLINE
  5
434
100
AcDbEntity
  8
0
 62
7
100
AcDbSpline
 70
8
 71
3
 72
8
 73
4
 74
0
 40
0
 40
0
 40
0
 40
0
 40
1
 40
1
 40
1
 40
1
 10
203.088618
 20
234.639132
 30
0.0
 10
203.328535
 20
234.500540
 30
0.0
 10
203.476237
 20
234.244432
 30
0.0
 10
203.476039
 20
233.967362
 30
0.0
  0
LWPOLYLINE
  5
435
100
AcDbEntity
  8
0
 62
7
100
AcDbPolyline
 90
2
 70
1
 10
201.862575
 20
226.504418
 30
0.0
 10
201.862575
 20
226.504418
 30
0.0
  0
SPLINE
  5
436
100
AcDbEntity
  8
0
 62
7
100
AcDbSpline
 70
8
 71
3
 72
8
 73
4
 74
0
 40
0
 40
0
 40
0
 40
0
 40
1
 40
1
 40
1
 40
1
 10
212.465691
 20
233.967353
 30
0.0
 10
212.466006
 20
233.693902
 30
0.0
 10
212.320303
 20
233.441088
 30
0.0
 10
212.083540
 20
233.304272
 30
0.0
  0
SPLINE
  5
437
100
AcDbEntity
  8
0
 62
7
100
AcDbSpline
 70
8
 71
3
 72
8
 73
4
 74
0
 40
0
 40
0
 40
0
 40
0
 40
1
 40
1
 40
1
 40
1
 10
212.083540
 20
233.304272
 30
0.0
 10
211.846777
 20
233.167455
 30
0.0
 10
211.554982
 20
233.167455
 30
0.0
 10
211.318219
 20
233.304272
 30
0.0
  0
SPLINE
  5
438
100
AcDbEntity
  8
0
 62
7
100
AcDbSpline
 70
8
 71
3
 72
8
 73
4
 74
0
 40
0
 40
0
 40
0
 40
0
 40
1
 40
1
 40
1
 40
1
 10
211.318219
 20
233.304272
 30
0.0
 10
211.081455
 20
233.441088
 30
0.0
 10
210.935752
 20
233.693902
 30
0.0
 10
210.936067
 20
233.967353
 30
0.0
  0
SPLINE
  5
439
100
AcDbEntity
  8
0
 62
7
100
AcDbSpline
 70
8
 71
3
 72
8
 73
4
 74
0
 40
0
 40
0
 40
0
 40
0
 40
1
 40
1
 40
1
 40
1
 10
210.936067
 20
233.967353
 30
0.0
 10
210.935752
 20
234.240804
 30
0.0
 10
211.081455
 20
234.493618
 30
0.0
 10
211.318219
 20
234.630435
 30
0.0
  0
SPLINE
  5
43a
100
AcDbEntity
  8
0
 62
7
100
AcDbSpline
 70
8
 71
3
 72
8
 73
4
 74
0
 40
0
 40
0
 40
0
 40
0
 40
1
 40
1
 40
1
 40
1
 10
211.318219
 20
234.630435
 30
0.0
 10
211.554982
 20
234.767251
 30
0.0
 10
211.846777
 20
234.767251
 30
0.0
 10
212.083540
 20
234.630435
 30
0.0
  0
SPLINE
  5
43b
100
AcDbEntity
  8
0
 62
7
100
AcDbSpline
 70
8
 71
3
 72
8
 73
4
 74
0
 40
0
 40
0
 40
0
 40
0
 40
1
 40
1
 40
1
 40
1
 10
212.083540
 20
234.630435
 30
0.0
 10
212.320303
 20
234.493618
 30
0.0
 10
212.466006
 20
234.240804
 30
0.0
 10
212.465691
 20
233.967353
 30
0.0
  0
LWPOLYLINE
  5
43c
100
AcDbEntity
  8
0
 62
7
100
AcDbPolyline
 90
2
 70
1
 10
203.476039
 20
233.967362
 30
0.0
 10
203.476039
 20
233.967362
 30
0.0
  0
SPLINE
  5
43d
100
AcDbEntity
  8
0
 62
1
100
AcDbSpline
 70
8
 71
3
 72
8
 73
4
 74
0
 40
0
 40
0
 40
0
 40
0
 40
1
 40
1
 40
1
 40
1
 10
206.800877
 20
145.250002
 30
0.0
 10
201.530417
 20
145.250002
 30
0.0
 10
196.076500
 20
153.331695
 30
0.0
 10
191.800879
 20
150.250003
 30
0.0
  0
SPLINE
  5
43e
100
AcDbEntity
  8
0
 62
1
100
AcDbSpline
 70
8
 71
3
 72
8
 73
4
 74
0
 40
0
 40
0
 40
0
 40
0
 40
1
 40
1
 40
1
 40
1
 10
191.800879
 20
150.250003
 30
0.0
 10
183.688456
 20
144.402901
 30
0.0
 10
191.302742
 20
130.237589
 30
0.0
 10
191.800879
 20
120.250001
 30
0.0
  0
SPLINE
  5
43f
100
AcDbEntity
  8
0
 62
1
100
AcDbSpline
 70
8
 71
3
 72
8
 73
4
 74
0
 40
0
 40
0
 40
0
 40
0
 40
1
 40
1
 40
1
 40
1
 10
191.800879
 20
120.250001
 30
0.0
 10
192.459989
 20
107.034906
 30
0.0
 10
195.197883
 20
83.497214
 30
0.0
 10
196.318986
 20
74.192150
 30
0.0
  0
SPLINE
  5
440
100
AcDbEntity
  8
0
 62
1
100
AcDbSpline
 70
8
 71
3
 72
8
 73
4
 74
0
 40
0
 40
0
 40
0
 40
0
 40
1
 40
1
 40
1
 40
1
 10
196.318986
 20
74.192150
 30
0.0
 10
196.617089
 20
71.717930
 30
0.0
 10
198.052680
 20
70.680724
 30
0.0
 10
196.800877
 20
70.250000
 30
0.0
  0
SPLINE
  5
441
100
AcDbEntity
  8
0
 62
1
100
AcDbSpline
 70
8
 71
3
 72
8
 73
4
 74
0
 40
0
 40
0
 40
0
 40
0
 40
1
 40
1
 40
1
 40
1
 10
196.800877
 20
70.250000
 30
0.0
 10
195.692836
 20
69.868740
 30
0.0
 10
196.033363
 20
71.854975
 30
0.0
 10
194.990010
 20
73.263100
 30
0.0
  0
SPLINE
  5
442
100
AcDbEntity
  8
0
 62
1
100
AcDbSpline
 70
8
 71
3
 72
8
 73
4
 74
0
 40
0
 40
0
 40
0
 40
0
 40
1
 40
1
 40
1
 40
1
 10
194.990010
 20
73.263100
 30
0.0
 10
194.032593
 20
74.555243
 30
0.0
 10
192.842911
 20
75.681626
 30
0.0
 10
191.800876
 20
75.250001
 30
0.0
  0
SPLINE
  5
443
100
AcDbEntity
  8
0
 62
1
100
AcDbSpline
 70
8
 71
3
 72
8
 73
4
 74
0
 40
0
 40
0
 40
0
 40
0
 40
1
 40
1
 40
1
 40
1
 10
191.800876
 20
75.250001
 30
0.0
 10
187.181480
 20
73.336585
 30
0.0
 10
187.181477
 20
62.163413
 30
0.0
 10
191.800879
 20
60.250000
 30
0.0
  0
SPLINE
  5
444
100
AcDbEntity
  8
0
 62
1
100
AcDbSpline
 70
8
 71
3
 72
8
 73
4
 74
0
 40
0
 40
0
 40
0
 40
0
 40
1
 40
1
 40
1
 40
1
 10
191.800879
 20
60.250000
 30
0.0
 10
193.096733
 20
59.713241
 30
0.0
 10
194.620922
 20
61.585930
 30
0.0
 10
195.642798
 20
63.190504
 30
0.0
  0
SPLINE
  5
445
100
AcDbEntity
  8
0
 62
1
100
AcDbSpline
 70
8
 71
3
 72
8
 73
4
 74
0
 40
0
 40
0
 40
0
 40
0
 40
1
 40
1
 40
1
 40
1
 10
195.642798
 20
63.190504
 30
0.0
 10
196.338123
 20
64.282320
 30
0.0
 10
196.016858
 20
65.324903
 30
0.0
 10
196.800877
 20
65.250001
 30
0.0
  0
SPLINE
  5
446
100
AcDbEntity
  8
0
 62
1
100
AcDbSpline
 70
8
 71
3
 72
8
 73
4
 74
0
 40
0
 40
0
 40
0
 40
0
 40
1
 40
1
 40
1
 40
1
 10
196.800877
 20
65.250001
 30
0.0
 10
197.519409
 20
65.181353
 30
0.0
 10
197.485639
 20
63.195714
 30
0.0
 10
197.485639
 20
63.195714
 30
0.0
  0
LWPOLYLINE
  5
447
100
AcDbEntity
  8
0
 62
7
100
AcDbPolyline
 90
2
 70
1
 10
212.465691
 20
233.967353
 30
0.0
 10
212.465691
 20
233.967353
 30
0.0
  0
SPLINE
  5
448
100
AcDbEntity
  8
0
 62
1
100
AcDbSpline
 70
8
 71
3
 72
8
 73
4
 74
0
 40
0
 40
0
 40
0
 40
0
 40
1
 40
1
 40
1
 40
1
 10
201.158462
 20
52.177253
 30
0.0
 10
201.819462
 20
51.032368
 30
0.0
 10
201.454524
 20
50.250003
 30
0.0
 10
200.961313
 20
50.250003
 30
0.0
  0
LWPOLYLINE
  5
449
100
AcDbEntity
  8
0
 62
1
100
AcDbPolyline
 90
2
 70
1
 10
197.485639
 20
63.195714
 30
0.0
 10
201.158462
 20
52.177253
 30
0.0
  0
SPLINE
  5
44a
100
AcDbEntity
  8
0
 62
1
100
AcDbSpline
 70
8
 71
3
 72
8
 73
4
 74
0
 40
0
 40
0
 40
0
 40
0
 40
1
 40
1
 40
1
 40
1
 10
186.800878
 20
50.250003
 30
0.0
 10
186.800878
 20
50.250003
 30
0.0
 10
184.886271
 20
33.360411
 30
0.0
 10
186.800878
 20
25.250002
 30
0.0
  0
SPLINE
  5
44b
100
AcDbEntity
  8
0
 62
1
100
AcDbSpline
 70
8
 71
3
 72
8
 73
4
 74
0
 40
0
 40
0
 40
0
 40
0
 40
1
 40
1
 40
1
 40
1
 10
186.800878
 20
25.250002
 30
0.0
 10
187.657117
 20
21.622919
 30
0.0
 10
188.122222
 20
15.846967
 30
0.0
 10
191.800879
 20
15.250002
 30
0.0
  0
SPLINE
  5
44c
100
AcDbEntity
  8
0
 62
1
100
AcDbSpline
 70
8
 71
3
 72
8
 73
4
 74
0
 40
0
 40
0
 40
0
 40
0
 40
1
 40
1
 40
1
 40
1
 10
191.800879
 20
15.250002
 30
0.0
 10
193.154151
 20
15.030397
 30
0.0
 10
194.624766
 20
16.757882
 30
0.0
 10
195.618372
 20
18.241679
 30
0.0
  0
SPLINE
  5
44d
100
AcDbEntity
  8
0
 62
1
100
AcDbSpline
 70
8
 71
3
 72
8
 73
4
 74
0
 40
0
 40
0
 40
0
 40
0
 40
1
 40
1
 40
1
 40
1
 10
195.618372
 20
18.241679
 30
0.0
 10
196.333001
 20
19.308869
 30
0.0
 10
196.051349
 20
20.454276
 30
0.0
 10
196.800877
 20
20.250004
 30
0.0
  0
SPLINE
  5
44e
100
AcDbEntity
  8
0
 62
1
100
AcDbSpline
 70
8
 71
3
 72
8
 73
4
 74
0
 40
0
 40
0
 40
0
 40
0
 40
1
 40
1
 40
1
 40
1
 10
196.800877
 20
20.250004
 30
0.0
 10
200.016912
 20
19.373523
 30
0.0
 10
198.553316
 20
13.085505
 30
0.0
 10
196.800877
 20
10.250004
 30
0.0
  0
SPLINE
  5
44f
100
AcDbEntity
  8
0
 62
1
100
AcDbSpline
 70
8
 71
3
 72
8
 73
4
 74
0
 40
0
 40
0
 40
0
 40
0
 40
1
 40
1
 40
1
 40
1
 10
196.800877
 20
10.250004
 30
0.0
 10
194.841595
 20
7.079813
 30
0.0
 10
188.760163
 20
8.420191
 30
0.0
 10
186.800878
 20
5.250003
 30
0.0
  0
SPLINE
  5
450
100
AcDbEntity
  8
0
 62
1
100
AcDbSpline
 70
8
 71
3
 72
8
 73
4
 74
0
 40
0
 40
0
 40
0
 40
0
 40
1
 40
1
 40
1
 40
1
 10
186.800878
 20
5.250003
 30
0.0
 10
185.924659
 20
3.832251
 30
0.0
 10
186.800878
 20
0.250001
 30
0.0
 10
186.800878
 20
0.250001
 30
0.0
  0
LWPOLYLINE
  5
451
100
AcDbEntity
  8
0
 62
1
100
AcDbPolyline
 90
3
 70
1
 10
200.961313
 20
50.250003
 30
0.0
 10
198.963075
 20
50.250003
 30
0.0
 10
186.800878
 20
50.250003
 30
0.0
  0
SPLINE
  5
452
100
AcDbEntity
  8
0
 62
1
100
AcDbSpline
 70
8
 71
3
 72
8
 73
4
 74
0
 40
0
 40
0
 40
0
 40
0
 40
1
 40
1
 40
1
 40
1
 10
226.800879
 20
0.250001
 30
0.0
 10
226.800879
 20
0.250001
 30
0.0
 10
227.677098
 20
3.832251
 30
0.0
 10
226.800879
 20
5.250003
 30
0.0
  0
SPLINE
  5
453
100
AcDbEntity
  8
0
 62
1
100
AcDbSpline
 70
8
 71
3
 72
8
 73
4
 74
0
 40
0
 40
0
 40
0
 40
0
 40
1
 40
1
 40
1
 40
1
 10
226.800879
 20
5.250003
 30
0.0
 10
224.841594
 20
8.420191
 30
0.0
 10
218.760162
 20
7.079813
 30
0.0
 10
216.800880
 20
10.250004
 30
0.0
  0
SPLINE
  5
454
100
AcDbEntity
  8
0
 62
1
100
AcDbSpline
 70
8
 71
3
 72
8
 73
4
 74
0
 40
0
 40
0
 40
0
 40
0
 40
1
 40
1
 40
1
 40
1
 10
216.800880
 20
10.250004
 30
0.0
 10
215.048440
 20
13.085505
 30
0.0
 10
213.584678
 20
19.374130
 30
0.0
 10
216.800880
 20
20.250004
 30
0.0
  0
SPLINE
  5
455
100
AcDbEntity
  8
0
 62
1
100
AcDbSpline
 70
8
 71
3
 72
8
 73
4
 74
0
 40
0
 40
0
 40
0
 40
0
 40
1
 40
1
 40
1
 40
1
 10
216.800880
 20
20.250004
 30
0.0
 10
217.545551
 20
20.452800
 30
0.0
 10
217.265059
 20
19.316308
 30
0.0
 10
217.974910
 20
18.254351
 30
0.0
  0
SPLINE
  5
456
100
AcDbEntity
  8
0
 62
1
100
AcDbSpline
 70
8
 71
3
 72
8
 73
4
 74
0
 40
0
 40
0
 40
0
 40
0
 40
1
 40
1
 40
1
 40
1
 10
217.974910
 20
18.254351
 30
0.0
 10
218.968614
 20
16.767737
 30
0.0
 10
220.443750
 20
15.029770
 30
0.0
 10
221.800878
 20
15.250002
 30
0.0
  0
SPLINE
  5
457
100
AcDbEntity
  8
0
 62
1
100
AcDbSpline
 70
8
 71
3
 72
8
 73
4
 74
0
 40
0
 40
0
 40
0
 40
0
 40
1
 40
1
 40
1
 40
1
 10
221.800878
 20
15.250002
 30
0.0
 10
225.479535
 20
15.846967
 30
0.0
 10
225.944640
 20
21.622919
 30
0.0
 10
226.800879
 20
25.250002
 30
0.0
  0
SPLINE
  5
458
100
AcDbEntity
  8
0
 62
1
100
AcDbSpline
 70
8
 71
3
 72
8
 73
4
 74
0
 40
0
 40
0
 40
0
 40
0
 40
1
 40
1
 40
1
 40
1
 10
226.800879
 20
25.250002
 30
0.0
 10
228.715486
 20
33.360411
 30
0.0
 10
226.800879
 20
50.250003
 30
0.0
 10
226.800879
 20
50.250003
 30
0.0
  0
LWPOLYLINE
  5
459
100
AcDbEntity
  8
0
 62
1
100
AcDbPolyline
 90
2
 70
1
 10
186.800878
 20
0.250001
 30
0.0
 10
226.800879
 20
0.250001
 30
0.0
  0
SPLINE
  5
45a
100
AcDbEntity
  8
0
 62
1
100
AcDbSpline
 70
8
 71
3
 72
8
 73
4
 74
0
 40
0
 40
0
 40
0
 40
0
 40
1
 40
1
 40
1
 40
1
 10
212.894461
 20
50.250003
 30
0.0
 10
212.894461
 20
50.250003
 30
0.0
 10
212.056810
 20
51.017800
 30
0.0
 10
212.460254
 20
52.228129
 30
0.0
  0
LWPOLYLINE
  5
45b
100
AcDbEntity
  8
0
 62
1
100
AcDbPolyline
 90
3
 70
1
 10
226.800879
 20
50.250003
 30
0.0
 10
214.948988
 20
50.250003
 30
0.0
 10
212.894461
 20
50.250003
 30
0.0
  0
SPLINE
  5
45c
100
AcDbEntity
  8
0
 62
1
100
AcDbSpline
 70
8
 71
3
 72
8
 73
4
 74
0
 40
0
 40
0
 40
0
 40
0
 40
1
 40
1
 40
1
 40
1
 10
216.104931
 20
63.162155
 30
0.0
 10
216.104931
 20
63.162155
 30
0.0
 10
216.070610
 20
65.180230
 30
0.0
 10
216.800880
 20
65.250001
 30
0.0
  0
SPLINE
  5
45d
100
AcDbEntity
  8
0
 62
1
100
AcDbSpline
 70
8
 71
3
 72
8
 73
4
 74
0
 40
0
 40
0
 40
0
 40
0
 40
1
 40
1
 40
1
 40
1
 10
216.800880
 20
65.250001
 30
0.0
 10
217.585026
 20
65.324920
 30
0.0
 10
217.263727
 20
64.282128
 30
0.0
 10
217.959165
 20
63.190180
 30
0.0
  0
SPLINE
  5
45e
100
AcDbEntity
  8
0
 62
1
100
AcDbSpline
 70
8
 71
3
 72
8
 73
4
 74
0
 40
0
 40
0
 40
0
 40
0
 40
1
 40
1
 40
1
 40
1
 10
217.959165
 20
63.190180
 30
0.0
 10
218.981041
 20
61.585676
 30
0.0
 10
220.505111
 20
59.713278
 30
0.0
 10
221.800878
 20
60.250000
 30
0.0
  0
SPLINE
  5
45f
100
AcDbEntity
  8
0
 62
1
100
AcDbSpline
 70
8
 71
3
 72
8
 73
4
 74
0
 40
0
 40
0
 40
0
 40
0
 40
1
 40
1
 40
1
 40
1
 10
221.800878
 20
60.250000
 30
0.0
 10
226.420277
 20
62.163410
 30
0.0
 10
226.420274
 20
73.336585
 30
0.0
 10
221.800878
 20
75.250001
 30
0.0
  0
SPLINE
  5
460
100
AcDbEntity
  8
0
 62
1
100
AcDbSpline
 70
8
 71
3
 72
8
 73
4
 74
0
 40
0
 40
0
 40
0
 40
0
 40
1
 40
1
 40
1
 40
1
 10
221.800878
 20
75.250001
 30
0.0
 10
220.476627
 20
75.798525
 30
0.0
 10
218.913923
 20
73.830841
 30
0.0
 10
217.892510
 20
72.204425
 30
0.0
  0
SPLINE
  5
461
100
AcDbEntity
  8
0
 62
1
100
AcDbSpline
 70
8
 71
3
 72
8
 73
4
 74
0
 40
0
 40
0
 40
0
 40
0
 40
1
 40
1
 40
1
 40
1
 10
217.892510
 20
72.204425
 30
0.0
 10
217.234308
 20
71.156353
 30
0.0
 10
217.510141
 20
70.018106
 30
0.0
 10
216.800880
 20
70.250000
 30
0.0
  0
SPLINE
  5
462
100
AcDbEntity
  8
0
 62
1
100
AcDbSpline
 70
8
 71
3
 72
8
 73
4
 74
0
 40
0
 40
0
 40
0
 40
0
 40
1
 40
1
 40
1
 40
1
 10
216.800880
 20
70.250000
 30
0.0
 10
216.178577
 20
70.453462
 30
0.0
 10
216.888589
 20
70.950534
 30
0.0
 10
217.041102
 20
72.199410
 30
0.0
  0
SPLINE
  5
463
100
AcDbEntity
  8
0
 62
1
100
AcDbSpline
 70
8
 71
3
 72
8
 73
4
 74
0
 40
0
 40
0
 40
0
 40
0
 40
1
 40
1
 40
1
 40
1
 10
217.041102
 20
72.199410
 30
0.0
 10
217.939643
 20
79.557259
 30
0.0
 10
221.087581
 20
105.948458
 30
0.0
 10
221.800878
 20
120.250001
 30
0.0
  0
SPLINE
  5
464
100
AcDbEntity
  8
0
 62
1
100
AcDbSpline
 70
8
 71
3
 72
8
 73
4
 74
0
 40
0
 40
0
 40
0
 40
0
 40
1
 40
1
 40
1
 40
1
 10
221.800878
 20
120.250001
 30
0.0
 10
222.299014
 20
130.237589
 30
0.0
 10
229.913299
 20
144.402901
 30
0.0
 10
221.800878
 20
150.250003
 30
0.0
  0
SPLINE
  5
465
100
AcDbEntity
  8
0
 62
1
100
AcDbSpline
 70
8
 71
3
 72
8
 73
4
 74
0
 40
0
 40
0
 40
0
 40
0
 40
1
 40
1
 40
1
 40
1
 10
221.800878
 20
150.250003
 30
0.0
 10
217.525257
 20
153.331695
 30
0.0
 10
212.071340
 20
145.250002
 30
0.0
 10
206.800877
 20
145.250002
 30
0.0
  0
LWPOLYLINE
  5
466
100
AcDbEntity
  8
0
 62
1
100
AcDbPolyline
 90
2
 70
1
 10
212.460254
 20
52.228129
 30
0.0
 10
216.104931
 20
63.162155
 30
0.0
  0
LWPOLYLINE
  5
467
100
AcDbEntity
  8
0
 62
1
100
AcDbPolyline
 90
2
 70
1
 10
206.800877
 20
145.250002
 30
0.0
 10
206.800877
 20
145.250002
 30
0.0
  0
LWPOLYLINE
  5
468
100
AcDbEntity
  8
0
 62
7
100
AcDbPolyline
 90
2
 70
0
 10
186.800878
 20
40.249983
 30
0.0
 10
226.800879
 20
40.249983
 30
0.0
  0
LWPOLYLINE
  5
469
100
AcDbEntity
  8
0
 62
7
100
AcDbPolyline
 90
2
 70
0
 10
186.800878
 20
30.250003
 30
0.0
 10
226.800879
 20
30.250003
 30
0.0
  0
SPLINE
  5
46a
100
AcDbEntity
  8
0
 62
7
100
AcDbSpline
 70
8
 71
3
 72
8
 73
4
 74
0
 40
0
 40
0
 40
0
 40
0
 40
1
 40
1
 40
1
 40
1
 10
204.660595
 20
67.749996
 30
0.0
 10
204.660779
 20
67.264146
 30
0.0
 10
204.211060
 20
66.815156
 30
0.0
 10
203.480886
 20
66.572200
 30
0.0
  0
SPLINE
  5
46b
100
AcDbEntity
  8
0
 62
7
100
AcDbSpline
 70
8
 71
3
 72
8
 73
4
 74
0
 40
0
 40
0
 40
0
 40
0
 40
1
 40
1
 40
1
 40
1
 10
203.480886
 20
66.572200
 30
0.0
 10
202.750711
 20
66.329244
 30
0.0
 10
201.851046
 20
66.329244
 30
0.0
 10
201.120872
 20
66.572200
 30
0.0
  0
SPLINE
  5
46c
100
AcDbEntity
  8
0
 62
7
100
AcDbSpline
 70
8
 71
3
 72
8
 73
4
 74
0
 40
0
 40
0
 40
0
 40
0
 40
1
 40
1
 40
1
 40
1
 10
201.120872
 20
66.572200
 30
0.0
 10
200.390698
 20
66.815156
 30
0.0
 10
199.940979
 20
67.264146
 30
0.0
 10
199.941163
 20
67.749996
 30
0.0
  0
SPLINE
  5
46d
100
AcDbEntity
  8
0
 62
7
100
AcDbSpline
 70
8
 71
3
 72
8
 73
4
 74
0
 40
0
 40
0
 40
0
 40
0
 40
1
 40
1
 40
1
 40
1
 10
199.941163
 20
67.749996
 30
0.0
 10
199.940979
 20
68.235847
 30
0.0
 10
200.390698
 20
68.684836
 30
0.0
 10
201.120872
 20
68.927792
 30
0.0
  0
SPLINE
  5
46e
100
AcDbEntity
  8
0
 62
7
100
AcDbSpline
 70
8
 71
3
 72
8
 73
4
 74
0
 40
0
 40
0
 40
0
 40
0
 40
1
 40
1
 40
1
 40
1
 10
201.120872
 20
68.927792
 30
0.0
 10
201.851046
 20
69.170748
 30
0.0
 10
202.750711
 20
69.170748
 30
0.0
 10
203.480886
 20
68.927792
 30
0.0
  0
SPLINE
  5
46f
100
AcDbEntity
  8
0
 62
7
100
AcDbSpline
 70
8
 71
3
 72
8
 73
4
 74
0
 40
0
 40
0
 40
0
 40
0
 40
1
 40
1
 40
1
 40
1
 10
203.480886
 20
68.927792
 30
0.0
 10
204.211060
 20
68.684836
 30
0.0
 10
204.660779
 20
68.235847
 30
0.0
 10
204.660595
 20
67.749996
 30
0.0
  0
LWPOLYLINE
  5
470
100
AcDbEntity
  8
0
 62
7
100
AcDbPolyline
 90
2
 70
0
 10
197.932302
 20
20.252369
 30
0.0
 10
215.932301
 20
20.252369
 30
0.0
  0
SPLINE
  5
471
100
AcDbEntity
  8
0
 62
7
100
AcDbSpline
 70
8
 71
3
 72
8
 73
4
 74
0
 40
0
 40
0
 40
0
 40
0
 40
1
 40
1
 40
1
 40
1
 10
213.654183
 20
67.749973
 30
0.0
 10
213.654652
 20
67.266304
 30
0.0
 10
213.206218
 20
66.819260
 30
0.0
 10
212.477910
 20
66.577347
 30
0.0
  0
SPLINE
  5
472
100
AcDbEntity
  8
0
 62
7
100
AcDbSpline
 70
8
 71
3
 72
8
 73
4
 74
0
 40
0
 40
0
 40
0
 40
0
 40
1
 40
1
 40
1
 40
1
 10
212.477910
 20
66.577347
 30
0.0
 10
211.749602
 20
66.335435
 30
0.0
 10
210.852154
 20
66.335435
 30
0.0
 10
210.123846
 20
66.577347
 30
0.0
  0
SPLINE
  5
473
100
AcDbEntity
  8
0
 62
7
100
AcDbSpline
 70
8
 71
3
 72
8
 73
4
 74
0
 40
0
 40
0
 40
0
 40
0
 40
1
 40
1
 40
1
 40
1
 10
210.123846
 20
66.577347
 30
0.0
 10
209.395538
 20
66.819260
 30
0.0
 10
208.947104
 20
67.266304
 30
0.0
 10
208.947573
 20
67.749973
 30
0.0
  0
SPLINE
  5
474
100
AcDbEntity
  8
0
 62
7
100
AcDbSpline
 70
8
 71
3
 72
8
 73
4
 74
0
 40
0
 40
0
 40
0
 40
0
 40
1
 40
1
 40
1
 40
1
 10
208.947573
 20
67.749973
 30
0.0
 10
208.947104
 20
68.233643
 30
0.0
 10
209.395538
 20
68.680687
 30
0.0
 10
210.123846
 20
68.922600
 30
0.0
  0
SPLINE
  5
475
100
AcDbEntity
  8
0
 62
7
100
AcDbSpline
 70
8
 71
3
 72
8
 73
4
 74
0
 40
0
 40
0
 40
0
 40
0
 40
1
 40
1
 40
1
 40
1
 10
210.123846
 20
68.922600
 30
0.0
 10
210.852154
 20
69.164512
 30
0.0
 10
211.749602
 20
69.164512
 30
0.0
 10
212.477910
 20
68.922600
 30
0.0
  0
SPLINE
  5
476
100
AcDbEntity
  8
0
 62
7
100
AcDbSpline
 70
8
 71
3
 72
8
 73
4
 74
0
 40
0
 40
0
 40
0
 40
0
 40
1
 40
1
 40
1
 40
1
 10
212.477910
 20
68.922600
 30
0.0
 10
213.206218
 20
68.680687
 30
0.0
 10
213.654652
 20
68.233643
 30
0.0
 10
213.654183
 20
67.749973
 30
0.0
  0
LWPOLYLINE
  5
477
100
AcDbEntity
  8
0
 62
7
100
AcDbPolyline
 90
2
 70
1
 10
204.660595
 20
67.749996
 30
0.0
 10
204.660595
 20
67.749996
 30
0.0
  0
SPLINE
  5
478
100
AcDbEntity
  8
0
 62
7
100
AcDbSpline
 70
8
 71
3
 72
8
 73
4
 74
0
 40
0
 40
0
 40
0
 40
0
 40
1
 40
1
 40
1
 40
1
 10
201.862575
 20
60.187064
 30
0.0
 10
201.862575
 20
60.187064
 30
0.0
 10
204.846130
 20
57.174906
 30
0.0
 10
206.767905
 20
57.157296
 30
0.0
  0
SPLINE
  5
479
100
AcDbEntity
  8
0
 62
7
100
AcDbSpline
 70
8
 71
3
 72
8
 73
4
 74
0
 40
0
 40
0
 40
0
 40
0
 40
1
 40
1
 40
1
 40
1
 10
206.767905
 20
57.157296
 30
0.0
 10
208.780271
 20
57.138951
 30
0.0
 10
211.961782
 20
60.235155
 30
0.0
 10
211.961782
 20
60.235155
 30
0.0
  0
SPLINE
  5
47a
100
AcDbEntity
  8
0
 62
7
100
AcDbSpline
 70
8
 71
3
 72
8
 73
4
 74
0
 40
0
 40
0
 40
0
 40
0
 40
1
 40
1
 40
1
 40
1
 10
211.961782
 20
60.235155
 30
0.0
 10
211.961782
 20
60.235155
 30
0.0
 10
208.558089
 20
59.323803
 30
0.0
 10
206.815996
 20
59.321432
 30
0.0
  0
SPLINE
  5
47b
100
AcDbEntity
  8
0
 62
7
100
AcDbSpline
 70
8
 71
3
 72
8
 73
4
 74
0
 40
0
 40
0
 40
0
 40
0
 40
1
 40
1
 40
1
 40
1
 10
206.815996
 20
59.321432
 30
0.0
 10
205.139836
 20
59.318610
 30
0.0
 10
201.862575
 20
60.187064
 30
0.0
 10
201.862575
 20
60.187064
 30
0.0
  0
LWPOLYLINE
  5
47c
100
AcDbEntity
  8
0
 62
7
100
AcDbPolyline
 90
2
 70
1
 10
213.654183
 20
67.749973
 30
0.0
 10
213.654183
 20
67.749973
 30
0.0
  0
SPLINE
  5
47d
100
AcDbEntity
  8
0
 62
7
100
AcDbSpline
 70
8
 71
3
 72
8
 73
4
 74
0
 40
0
 40
0
 40
0
 40
0
 40
1
 40
1
 40
1
 40
1
 10
205.805691
 20
66.969530
 30
0.0
 10
205.805691
 20
66.969530
 30
0.0
 10
207.482816
 20
65.525797
 30
0.0
 10
208.069872
 20
64.698104
 30
0.0
  0
SPLINE
  5
47e
100
AcDbEntity
  8
0
 62
7
100
AcDbSpline
 70
8
 71
3
 72
8
 73
4
 74
0
 40
0
 40
0
 40
0
 40
0
 40
1
 40
1
 40
1
 40
1
 10
208.069872
 20
64.698104
 30
0.0
 10
208.656923
 20
63.870411
 30
0.0
 10
209.289050
 20
62.058367
 30
0.0
 10
209.289050
 20
62.058367
 30
0.0
  0
SPLINE
  5
47f
100
AcDbEntity
  8
0
 62
7
100
AcDbSpline
 70
8
 71
3
 72
8
 73
4
 74
0
 40
0
 40
0
 40
0
 40
0
 40
1
 40
1
 40
1
 40
1
 10
209.289050
 20
62.058367
 30
0.0
 10
209.289050
 20
62.058367
 30
0.0
 10
208.274371
 20
61.813542
 30
0.0
 10
207.808622
 20
61.935578
 30
0.0
  0
SPLINE
  5
480
100
AcDbEntity
  8
0
 62
7
100
AcDbSpline
 70
8
 71
3
 72
8
 73
4
 74
0
 40
0
 40
0
 40
0
 40
0
 40
1
 40
1
 40
1
 40
1
 10
207.808622
 20
61.935578
 30
0.0
 10
207.365688
 20
62.051658
 30
0.0
 10
207.323146
 20
62.678878
 30
0.0
 10
206.850701
 20
62.672254
 30
0.0
  0
SPLINE
  5
481
100
AcDbEntity
  8
0
 62
7
100
AcDbSpline
 70
8
 71
3
 72
8
 73
4
 74
0
 40
0
 40
0
 40
0
 40
0
 40
1
 40
1
 40
1
 40
1
 10
206.850701
 20
62.672254
 30
0.0
 10
206.356467
 20
62.665255
 30
0.0
 10
205.892773
 20
61.874211
 30
0.0
 10
205.892773
 20
61.874211
 30
0.0
  0
SPLINE
  5
482
100
AcDbEntity
  8
0
 62
7
100
AcDbSpline
 70
8
 71
3
 72
8
 73
4
 74
0
 40
0
 40
0
 40
0
 40
0
 40
1
 40
1
 40
1
 40
1
 10
203.476039
 20
67.650008
 30
0.0
 10
203.476237
 20
67.372937
 30
0.0
 10
203.328535
 20
67.116829
 30
0.0
 10
203.088618
 20
66.978237
 30
0.0
  0
SPLINE
  5
483
100
AcDbEntity
  8
0
 62
7
100
AcDbSpline
 70
8
 71
3
 72
8
 73
4
 74
0
 40
0
 40
0
 40
0
 40
0
 40
1
 40
1
 40
1
 40
1
 10
203.088618
 20
66.978237
 30
0.0
 10
202.848702
 20
66.839645
 30
0.0
 10
202.553055
 20
66.839645
 30
0.0
 10
202.313138
 20
66.978237
 30
0.0
  0
SPLINE
  5
484
100
AcDbEntity
  8
0
 62
7
100
AcDbSpline
 70
8
 71
3
 72
8
 73
4
 74
0
 40
0
 40
0
 40
0
 40
0
 40
1
 40
1
 40
1
 40
1
 10
202.313138
 20
66.978237
 30
0.0
 10
202.073221
 20
67.116829
 30
0.0
 10
201.925520
 20
67.372937
 30
0.0
 10
201.925717
 20
67.650008
 30
0.0
  0
SPLINE
  5
485
100
AcDbEntity
  8
0
 62
7
100
AcDbSpline
 70
8
 71
3
 72
8
 73
4
 74
0
 40
0
 40
0
 40
0
 40
0
 40
1
 40
1
 40
1
 40
1
 10
201.925717
 20
67.650008
 30
0.0
 10
201.925520
 20
67.927078
 30
0.0
 10
202.073221
 20
68.183186
 30
0.0
 10
202.313138
 20
68.321778
 30
0.0
  0
SPLINE
  5
486
100
AcDbEntity
  8
0
 62
7
100
AcDbSpline
 70
8
 71
3
 72
8
 73
4
 74
0
 40
0
 40
0
 40
0
 40
0
 40
1
 40
1
 40
1
 40
1
 10
202.313138
 20
68.321778
 30
0.0
 10
202.553055
 20
68.460370
 30
0.0
 10
202.848702
 20
68.460370
 30
0.0
 10
203.088618
 20
68.321778
 30
0.0
  0
SPLINE
  5
487
100
AcDbEntity
  8
0
 62
7
100
AcDbSpline
 70
8
 71
3
 72
8
 73
4
 74
0
 40
0
 40
0
 40
0
 40
0
 40
1
 40
1
 40
1
 40
1
 10
203.088618
 20
68.321778
 30
0.0
 10
203.328535
 20
68.183186
 30
0.0
 10
203.476237
 20
67.927078
 30
0.0
 10
203.476039
 20
67.650008
 30
0.0
  0
LWPOLYLINE
  5
488
100
AcDbEntity
  8
0
 62
7
100
AcDbPolyline
 90
2
 70
1
 10
201.862575
 20
60.187064
 30
0.0
 10
201.862575
 20
60.187064
 30
0.0
  0
SPLINE
  5
489
100
AcDbEntity
  8
0
 62
7
100
AcDbSpline
 70
8
 71
3
 72
8
 73
4
 74
0
 40
0
 40
0
 40
0
 40
0
 40
1
 40
1
 40
1
 40
1
 10
212.465691
 20
67.649999
 30
0.0
 10
212.466006
 20
67.376548
 30
0.0
 10
212.320303
 20
67.123734
 30
0.0
 10
212.083540
 20
66.986918
 30
0.0
  0
SPLINE
  5
48a
100
AcDbEntity
  8
0
 62
7
100
AcDbSpline
 70
8
 71
3
 72
8
 73
4
 74
0
 40
0
 40
0
 40
0
 40
0
 40
1
 40
1
 40
1
 40
1
 10
212.083540
 20
66.986918
 30
0.0
 10
211.846777
 20
66.850101
 30
0.0
 10
211.554982
 20
66.850101
 30
0.0
 10
211.318219
 20
66.986918
 30
0.0
  0
SPLINE
  5
48b
100
AcDbEntity
  8
0
 62
7
100
AcDbSpline
 70
8
 71
3
 72
8
 73
4
 74
0
 40
0
 40
0
 40
0
 40
0
 40
1
 40
1
 40
1
 40
1
 10
211.318219
 20
66.986918
 30
0.0
 10
211.081455
 20
67.123734
 30
0.0
 10
210.935752
 20
67.376548
 30
0.0
 10
210.936067
 20
67.649999
 30
0.0
  0
SPLINE
  5
48c
100
AcDbEntity
  8
0
 62
7
100
AcDbSpline
 70
8
 71
3
 72
8
 73
4
 74
0
 40
0
 40
0
 40
0
 40
0
 40
1
 40
1
 40
1
 40
1
 10
210.936067
 20
67.649999
 30
0.0
 10
210.935752
 20
67.923450
 30
0.0
 10
211.081455
 20
68.176264
 30
0.0
 10
211.318219
 20
68.313080
 30
0.0
  0
SPLINE
  5
48d
100
AcDbEntity
  8
0
 62
7
100
AcDbSpline
 70
8
 71
3
 72
8
 73
4
 74
0
 40
0
 40
0
 40
0
 40
0
 40
1
 40
1
 40
1
 40
1
 10
211.318219
 20
68.313080
 30
0.0
 10
211.554982
 20
68.449897
 30
0.0
 10
211.846777
 20
68.449897
 30
0.0
 10
212.083540
 20
68.313080
 30
0.0
  0
SPLINE
  5
48e
100
AcDbEntity
  8
0
 62
7
100
AcDbSpline
 70
8
 71
3
 72
8
 73
4
 74
0
 40
0
 40
0
 40
0
 40
0
 40
1
 40
1
 40
1
 40
1
 10
212.083540
 20
68.313080
 30
0.0
 10
212.320303
 20
68.176264
 30
0.0
 10
212.466006
 20
67.923450
 30
0.0
 10
212.465691
 20
67.649999
 30
0.0
  0
LWPOLYLINE
  5
48f
100
AcDbEntity
  8
0
 62
7
100
AcDbPolyline
 90
2
 70
1
 10
203.476039
 20
67.650008
 30
0.0
 10
203.476039
 20
67.650008
 30
0.0
  0
SPLINE
  5
490
100
AcDbEntity
  8
0
 62
1
100
AcDbSpline
 70
8
 71
3
 72
8
 73
4
 74
0
 40
0
 40
0
 40
0
 40
0
 40
1
 40
1
 40
1
 40
1
 10
253.225563
 20
311.567356
 30
0.0
 10
247.955103
 20
311.567356
 30
0.0
 10
242.501187
 20
319.649049
 30
0.0
 10
238.225565
 20
316.567357
 30
0.0
  0
SPLINE
  5
491
100
AcDbEntity
  8
0
 62
1
100
AcDbSpline
 70
8
 71
3
 72
8
 73
4
 74
0
 40
0
 40
0
 40
0
 40
0
 40
1
 40
1
 40
1
 40
1
 10
238.225565
 20
316.567357
 30
0.0
 10
230.113143
 20
310.720255
 30
0.0
 10
237.727429
 20
296.554943
 30
0.0
 10
238.225565
 20
286.567355
 30
0.0
  0
SPLINE
  5
492
100
AcDbEntity
  8
0
 62
1
100
AcDbSpline
 70
8
 71
3
 72
8
 73
4
 74
0
 40
0
 40
0
 40
0
 40
0
 40
1
 40
1
 40
1
 40
1
 10
238.225565
 20
286.567355
 30
0.0
 10
238.884675
 20
273.352260
 30
0.0
 10
241.622570
 20
249.814569
 30
0.0
 10
242.743672
 20
240.509504
 30
0.0
  0
SPLINE
  5
493
100
AcDbEntity
  8
0
 62
1
100
AcDbSpline
 70
8
 71
3
 72
8
 73
4
 74
0
 40
0
 40
0
 40
0
 40
0
 40
1
 40
1
 40
1
 40
1
 10
242.743672
 20
240.509504
 30
0.0
 10
243.041775
 20
238.035285
 30
0.0
 10
244.477366
 20
236.998079
 30
0.0
 10
243.225564
 20
236.567354
 30
0.0
  0
SPLINE
  5
494
100
AcDbEntity
  8
0
 62
1
100
AcDbSpline
 70
8
 71
3
 72
8
 73
4
 74
0
 40
0
 40
0
 40
0
 40
0
 40
1
 40
1
 40
1
 40
1
 10
243.225564
 20
236.567354
 30
0.0
 10
242.117522
 20
236.186094
 30
0.0
 10
242.458049
 20
238.172329
 30
0.0
 10
241.414696
 20
239.580454
 30
0.0
  0
SPLINE
  5
495
100
AcDbEntity
  8
0
 62
1
100
AcDbSpline
 70
8
 71
3
 72
8
 73
4
 74
0
 40
0
 40
0
 40
0
 40
0
 40
1
 40
1
 40
1
 40
1
 10
241.414696
 20
239.580454
 30
0.0
 10
240.457280
 20
240.872597
 30
0.0
 10
239.267597
 20
241.998980
 30
0.0
 10
238.225562
 20
241.567355
 30
0.0
  0
SPLINE
  5
496
100
AcDbEntity
  8
0
 62
1
100
AcDbSpline
 70
8
 71
3
 72
8
 73
4
 74
0
 40
0
 40
0
 40
0
 40
0
 40
1
 40
1
 40
1
 40
1
 10
238.225562
 20
241.567355
 30
0.0
 10
233.606166
 20
239.653939
 30
0.0
 10
233.606163
 20
228.480767
 30
0.0
 10
238.225565
 20
226.567354
 30
0.0
  0
SPLINE
  5
497
100
AcDbEntity
  8
0
 62
1
100
AcDbSpline
 70
8
 71
3
 72
8
 73
4
 74
0
 40
0
 40
0
 40
0
 40
0
 40
1
 40
1
 40
1
 40
1
 10
238.225565
 20
226.567354
 30
0.0
 10
239.521420
 20
226.030596
 30
0.0
 10
241.045609
 20
227.903284
 30
0.0
 10
242.067484
 20
229.507858
 30
0.0
  0
SPLINE
  5
498
100
AcDbEntity
  8
0
 62
1
100
AcDbSpline
 70
8
 71
3
 72
8
 73
4
 74
0
 40
0
 40
0
 40
0
 40
0
 40
1
 40
1
 40
1
 40
1
 10
242.067484
 20
229.507858
 30
0.0
 10
242.762809
 20
230.599675
 30
0.0
 10
242.441545
 20
231.642257
 30
0.0
 10
243.225564
 20
231.567355
 30
0.0
  0
SPLINE
  5
499
100
AcDbEntity
  8
0
 62
1
100
AcDbSpline
 70
8
 71
3
 72
8
 73
4
 74
0
 40
0
 40
0
 40
0
 40
0
 40
1
 40
1
 40
1
 40
1
 10
243.225564
 20
231.567355
 30
0.0
 10
243.944096
 20
231.498708
 30
0.0
 10
243.910325
 20
229.513068
 30
0.0
 10
243.910325
 20
229.513068
 30
0.0
  0
LWPOLYLINE
  5
49a
100
AcDbEntity
  8
0
 62
7
100
AcDbPolyline
 90
2
 70
1
 10
212.465691
 20
67.649999
 30
0.0
 10
212.465691
 20
67.649999
 30
0.0
  0
SPLINE
  5
49b
100
AcDbEntity
  8
0
 62
1
100
AcDbSpline
 70
8
 71
3
 72
8
 73
4
 74
0
 40
0
 40
0
 40
0
 40
0
 40
1
 40
1
 40
1
 40
1
 10
247.583148
 20
218.494607
 30
0.0
 10
248.244148
 20
217.349722
 30
0.0
 10
247.879210
 20
216.567357
 30
0.0
 10
247.385999
 20
216.567357
 30
0.0
  0
LWPOLYLINE
  5
49c
100
AcDbEntity
  8
0
 62
1
100
AcDbPolyline
 90
2
 70
1
 10
243.910325
 20
229.513068
 30
0.0
 10
247.583148
 20
218.494607
 30
0.0
  0
SPLINE
  5
49d
100
AcDbEntity
  8
0
 62
1
100
AcDbSpline
 70
8
 71
3
 72
8
 73
4
 74
0
 40
0
 40
0
 40
0
 40
0
 40
1
 40
1
 40
1
 40
1
 10
233.225564
 20
216.567357
 30
0.0
 10
233.225564
 20
216.567357
 30
0.0
 10
231.310957
 20
199.677765
 30
0.0
 10
233.225564
 20
191.567356
 30
0.0
  0
SPLINE
  5
49e
100
AcDbEntity
  8
0
 62
1
100
AcDbSpline
 70
8
 71
3
 72
8
 73
4
 74
0
 40
0
 40
0
 40
0
 40
0
 40
1
 40
1
 40
1
 40
1
 10
233.225564
 20
191.567356
 30
0.0
 10
234.081803
 20
187.940273
 30
0.0
 10
234.546909
 20
182.164321
 30
0.0
 10
238.225565
 20
181.567357
 30
0.0
  0
SPLINE
  5
49f
100
AcDbEntity
  8
0
 62
1
100
AcDbSpline
 70
8
 71
3
 72
8
 73
4
 74
0
 40
0
 40
0
 40
0
 40
0
 40
1
 40
1
 40
1
 40
1
 10
238.225565
 20
181.567357
 30
0.0
 10
239.578838
 20
181.347751
 30
0.0
 10
241.049452
 20
183.075236
 30
0.0
 10
242.043058
 20
184.559033
 30
0.0
  0
SPLINE
  5
4a0
100
AcDbEntity
  8
0
 62
1
100
AcDbSpline
 70
8
 71
3
 72
8
 73
4
 74
0
 40
0
 40
0
 40
0
 40
0
 40
1
 40
1
 40
1
 40
1
 10
242.043058
 20
184.559033
 30
0.0
 10
242.757687
 20
185.626223
 30
0.0
 10
242.476035
 20
186.771630
 30
0.0
 10
243.225564
 20
186.567358
 30
0.0
  0
SPLINE
  5
4a1
100
AcDbEntity
  8
0
 62
1
100
AcDbSpline
 70
8
 71
3
 72
8
 73
4
 74
0
 40
0
 40
0
 40
0
 40
0
 40
1
 40
1
 40
1
 40
1
 10
243.225564
 20
186.567358
 30
0.0
 10
246.441599
 20
185.690877
 30
0.0
 10
244.978003
 20
179.402859
 30
0.0
 10
243.225564
 20
176.567358
 30
0.0
  0
SPLINE
  5
4a2
100
AcDbEntity
  8
0
 62
1
100
AcDbSpline
 70
8
 71
3
 72
8
 73
4
 74
0
 40
0
 40
0
 40
0
 40
0
 40
1
 40
1
 40
1
 40
1
 10
243.225564
 20
176.567358
 30
0.0
 10
241.266281
 20
173.397167
 30
0.0
 10
235.184849
 20
174.737545
 30
0.0
 10
233.225564
 20
171.567357
 30
0.0
  0
SPLINE
  5
4a3
100
AcDbEntity
  8
0
 62
1
100
AcDbSpline
 70
8
 71
3
 72
8
 73
4
 74
0
 40
0
 40
0
 40
0
 40
0
 40
1
 40
1
 40
1
 40
1
 10
233.225564
 20
171.567357
 30
0.0
 10
232.349346
 20
170.149605
 30
0.0
 10
233.225564
 20
166.567355
 30
0.0
 10
233.225564
 20
166.567355
 30
0.0
  0
LWPOLYLINE
  5
4a4
100
AcDbEntity
  8
0
 62
1
100
AcDbPolyline
 90
3
 70
1
 10
247.385999
 20
216.567357
 30
0.0
 10
245.387761
 20
216.567357
 30
0.0
 10
233.225564
 20
216.567357
 30
0.0
  0
SPLINE
  5
4a5
100
AcDbEntity
  8
0
 62
1
100
AcDbSpline
 70
8
 71
3
 72
8
 73
4
 74
0
 40
0
 40
0
 40
0
 40
0
 40
1
 40
1
 40
1
 40
1
 10
273.225566
 20
166.567355
 30
0.0
 10
273.225566
 20
166.567355
 30
0.0
 10
274.101784
 20
170.149605
 30
0.0
 10
273.225566
 20
171.567357
 30
0.0
  0
SPLINE
  5
4a6
100
AcDbEntity
  8
0
 62
1
100
AcDbSpline
 70
8
 71
3
 72
8
 73
4
 74
0
 40
0
 40
0
 40
0
 40
0
 40
1
 40
1
 40
1
 40
1
 10
273.225566
 20
171.567357
 30
0.0
 10
271.266280
 20
174.737545
 30
0.0
 10
265.184849
 20
173.397167
 30
0.0
 10
263.225566
 20
176.567358
 30
0.0
  0
SPLINE
  5
4a7
100
AcDbEntity
  8
0
 62
1
100
AcDbSpline
 70
8
 71
3
 72
8
 73
4
 74
0
 40
0
 40
0
 40
0
 40
0
 40
1
 40
1
 40
1
 40
1
 10
263.225566
 20
176.567358
 30
0.0
 10
261.473127
 20
179.402859
 30
0.0
 10
260.009364
 20
185.691484
 30
0.0
 10
263.225566
 20
186.567358
 30
0.0
  0
SPLINE
  5
4a8
100
AcDbEntity
  8
0
 62
1
100
AcDbSpline
 70
8
 71
3
 72
8
 73
4
 74
0
 40
0
 40
0
 40
0
 40
0
 40
1
 40
1
 40
1
 40
1
 10
263.225566
 20
186.567358
 30
0.0
 10
263.970237
 20
186.770154
 30
0.0
 10
263.689745
 20
185.633662
 30
0.0
 10
264.399596
 20
184.571705
 30
0.0
  0
SPLINE
  5
4a9
100
AcDbEntity
  8
0
 62
1
100
AcDbSpline
 70
8
 71
3
 72
8
 73
4
 74
0
 40
0
 40
0
 40
0
 40
0
 40
1
 40
1
 40
1
 40
1
 10
264.399596
 20
184.571705
 30
0.0
 10
265.393301
 20
183.085091
 30
0.0
 10
266.868437
 20
181.347124
 30
0.0
 10
268.225564
 20
181.567357
 30
0.0
  0
SPLINE
  5
4aa
100
AcDbEntity
  8
0
 62
1
100
AcDbSpline
 70
8
 71
3
 72
8
 73
4
 74
0
 40
0
 40
0
 40
0
 40
0
 40
1
 40
1
 40
1
 40
1
 10
268.225564
 20
181.567357
 30
0.0
 10
271.904221
 20
182.164321
 30
0.0
 10
272.369326
 20
187.940273
 30
0.0
 10
273.225566
 20
191.567356
 30
0.0
  0
SPLINE
  5
4ab
100
AcDbEntity
  8
0
 62
1
100
AcDbSpline
 70
8
 71
3
 72
8
 73
4
 74
0
 40
0
 40
0
 40
0
 40
0
 40
1
 40
1
 40
1
 40
1
 10
273.225566
 20
191.567356
 30
0.0
 10
275.140173
 20
199.677765
 30
0.0
 10
273.225566
 20
216.567357
 30
0.0
 10
273.225566
 20
216.567357
 30
0.0
  0
LWPOLYLINE
  5
4ac
100
AcDbEntity
  8
0
 62
1
100
AcDbPolyline
 90
2
 70
1
 10
233.225564
 20
166.567355
 30
0.0
 10
273.225566
 20
166.567355
 30
0.0
  0
SPLINE
  5
4ad
100
AcDbEntity
  8
0
 62
1
100
AcDbSpline
 70
8
 71
3
 72
8
 73
4
 74
0
 40
0
 40
0
 40
0
 40
0
 40
1
 40
1
 40
1
 40
1
 10
259.319148
 20
216.567357
 30
0.0
 10
259.319148
 20
216.567357
 30
0.0
 10
258.481497
 20
217.335154
 30
0.0
 10
258.884940
 20
218.545484
 30
0.0
  0
LWPOLYLINE
  5
4ae
100
AcDbEntity
  8
0
 62
1
100
AcDbPolyline
 90
3
 70
1
 10
273.225566
 20
216.567357
 30
0.0
 10
261.373675
 20
216.567357
 30
0.0
 10
259.319148
 20
216.567357
 30
0.0
  0
SPLINE
  5
4af
100
AcDbEntity
  8
0
 62
1
100
AcDbSpline
 70
8
 71
3
 72
8
 73
4
 74
0
 40
0
 40
0
 40
0
 40
0
 40
1
 40
1
 40
1
 40
1
 10
262.529617
 20
229.479509
 30
0.0
 10
262.529617
 20
229.479509
 30
0.0
 10
262.495296
 20
231.497584
 30
0.0
 10
263.225566
 20
231.567355
 30
0.0
  0
SPLINE
  5
4b0
100
AcDbEntity
  8
0
 62
1
100
AcDbSpline
 70
8
 71
3
 72
8
 73
4
 74
0
 40
0
 40
0
 40
0
 40
0
 40
1
 40
1
 40
1
 40
1
 10
263.225566
 20
231.567355
 30
0.0
 10
264.009712
 20
231.642274
 30
0.0
 10
263.688413
 20
230.599483
 30
0.0
 10
264.383851
 20
229.507534
 30
0.0
  0
SPLINE
  5
4b1
100
AcDbEntity
  8
0
 62
1
100
AcDbSpline
 70
8
 71
3
 72
8
 73
4
 74
0
 40
0
 40
0
 40
0
 40
0
 40
1
 40
1
 40
1
 40
1
 10
264.383851
 20
229.507534
 30
0.0
 10
265.405727
 20
227.903030
 30
0.0
 10
266.929798
 20
226.030632
 30
0.0
 10
268.225564
 20
226.567354
 30
0.0
  0
SPLINE
  5
4b2
100
AcDbEntity
  8
0
 62
1
100
AcDbSpline
 70
8
 71
3
 72
8
 73
4
 74
0
 40
0
 40
0
 40
0
 40
0
 40
1
 40
1
 40
1
 40
1
 10
268.225564
 20
226.567354
 30
0.0
 10
272.844964
 20
228.480764
 30
0.0
 10
272.844961
 20
239.653939
 30
0.0
 10
268.225564
 20
241.567355
 30
0.0
  0
SPLINE
  5
4b3
100
AcDbEntity
  8
0
 62
1
100
AcDbSpline
 70
8
 71
3
 72
8
 73
4
 74
0
 40
0
 40
0
 40
0
 40
0
 40
1
 40
1
 40
1
 40
1
 10
268.225564
 20
241.567355
 30
0.0
 10
266.901313
 20
242.115879
 30
0.0
 10
265.338609
 20
240.148195
 30
0.0
 10
264.317196
 20
238.521779
 30
0.0
  0
SPLINE
  5
4b4
100
AcDbEntity
  8
0
 62
1
100
AcDbSpline
 70
8
 71
3
 72
8
 73
4
 74
0
 40
0
 40
0
 40
0
 40
0
 40
1
 40
1
 40
1
 40
1
 10
264.317196
 20
238.521779
 30
0.0
 10
263.658994
 20
237.473708
 30
0.0
 10
263.934827
 20
236.335460
 30
0.0
 10
263.225566
 20
236.567354
 30
0.0
  0
SPLINE
  5
4b5
100
AcDbEntity
  8
0
 62
1
100
AcDbSpline
 70
8
 71
3
 72
8
 73
4
 74
0
 40
0
 40
0
 40
0
 40
0
 40
1
 40
1
 40
1
 40
1
 10
263.225566
 20
236.567354
 30
0.0
 10
262.603263
 20
236.770816
 30
0.0
 10
263.313275
 20
237.267889
 30
0.0
 10
263.465788
 20
238.516764
 30
0.0
  0
SPLINE
  5
4b6
100
AcDbEntity
  8
0
 62
1
100
AcDbSpline
 70
8
 71
3
 72
8
 73
4
 74
0
 40
0
 40
0
 40
0
 40
0
 40
1
 40
1
 40
1
 40
1
 10
263.465788
 20
238.516764
 30
0.0
 10
264.364330
 20
245.874614
 30
0.0
 10
267.512267
 20
272.265812
 30
0.0
 10
268.225564
 20
286.567355
 30
0.0
  0
SPLINE
  5
4b7
100
AcDbEntity
  8
0
 62
1
100
AcDbSpline
 70
8
 71
3
 72
8
 73
4
 74
0
 40
0
 40
0
 40
0
 40
0
 40
1
 40
1
 40
1
 40
1
 10
268.225564
 20
286.567355
 30
0.0
 10
268.723701
 20
296.554943
 30
0.0
 10
276.337986
 20
310.720255
 30
0.0
 10
268.225564
 20
316.567357
 30
0.0
  0
SPLINE
  5
4b8
100
AcDbEntity
  8
0
 62
1
100
AcDbSpline
 70
8
 71
3
 72
8
 73
4
 74
0
 40
0
 40
0
 40
0
 40
0
 40
1
 40
1
 40
1
 40
1
 10
268.225564
 20
316.567357
 30
0.0
 10
263.949943
 20
319.649049
 30
0.0
 10
258.496027
 20
311.567356
 30
0.0
 10
253.225563
 20
311.567356
 30
0.0
  0
LWPOLYLINE
  5
4b9
100
AcDbEntity
  8
0
 62
1
100
AcDbPolyline
 90
2
 70
1
 10
258.884940
 20
218.545484
 30
0.0
 10
262.529617
 20
229.479509
 30
0.0
  0
LWPOLYLINE
  5
4ba
100
AcDbEntity
  8
0
 62
1
100
AcDbPolyline
 90
2
 70
1
 10
253.225563
 20
311.567356
 30
0.0
 10
253.225563
 20
311.567356
 30
0.0
  0
LWPOLYLINE
  5
4bb
100
AcDbEntity
  8
0
 62
7
100
AcDbPolyline
 90
2
 70
0
 10
233.225564
 20
206.567338
 30
0.0
 10
273.225566
 20
206.567338
 30
0.0
  0
LWPOLYLINE
  5
4bc
100
AcDbEntity
  8
0
 62
7
100
AcDbPolyline
 90
2
 70
0
 10
233.225564
 20
196.567358
 30
0.0
 10
273.225566
 20
196.567358
 30
0.0
  0
SPLINE
  5
4bd
100
AcDbEntity
  8
0
 62
7
100
AcDbSpline
 70
8
 71
3
 72
8
 73
4
 74
0
 40
0
 40
0
 40
0
 40
0
 40
1
 40
1
 40
1
 40
1
 10
251.085281
 20
234.067350
 30
0.0
 10
251.085465
 20
233.581500
 30
0.0
 10
250.635746
 20
233.132510
 30
0.0
 10
249.905572
 20
232.889554
 30
0.0
  0
SPLINE
  5
4be
100
AcDbEntity
  8
0
 62
7
100
AcDbSpline
 70
8
 71
3
 72
8
 73
4
 74
0
 40
0
 40
0
 40
0
 40
0
 40
1
 40
1
 40
1
 40
1
 10
249.905572
 20
232.889554
 30
0.0
 10
249.175398
 20
232.646598
 30
0.0
 10
248.275733
 20
232.646598
 30
0.0
 10
247.545558
 20
232.889554
 30
0.0
  0
SPLINE
  5
4bf
100
AcDbEntity
  8
0
 62
7
100
AcDbSpline
 70
8
 71
3
 72
8
 73
4
 74
0
 40
0
 40
0
 40
0
 40
0
 40
1
 40
1
 40
1
 40
1
 10
247.545558
 20
232.889554
 30
0.0
 10
246.815384
 20
233.132510
 30
0.0
 10
246.365665
 20
233.581500
 30
0.0
 10
246.365849
 20
234.067350
 30
0.0
  0
SPLINE
  5
4c0
100
AcDbEntity
  8
0
 62
7
100
AcDbSpline
 70
8
 71
3
 72
8
 73
4
 74
0
 40
0
 40
0
 40
0
 40
0
 40
1
 40
1
 40
1
 40
1
 10
246.365849
 20
234.067350
 30
0.0
 10
246.365665
 20
234.553201
 30
0.0
 10
246.815384
 20
235.002191
 30
0.0
 10
247.545558
 20
235.245147
 30
0.0
  0
SPLINE
  5
4c1
100
AcDbEntity
  8
0
 62
7
100
AcDbSpline
 70
8
 71
3
 72
8
 73
4
 74
0
 40
0
 40
0
 40
0
 40
0
 40
1
 40
1
 40
1
 40
1
 10
247.545558
 20
235.245147
 30
0.0
 10
248.275733
 20
235.488102
 30
0.0
 10
249.175398
 20
235.488102
 30
0.0
 10
249.905572
 20
235.245147
 30
0.0
  0
SPLINE
  5
4c2
100
AcDbEntity
  8
0
 62
7
100
AcDbSpline
 70
8
 71
3
 72
8
 73
4
 74
0
 40
0
 40
0
 40
0
 40
0
 40
1
 40
1
 40
1
 40
1
 10
249.905572
 20
235.245147
 30
0.0
 10
250.635746
 20
235.002191
 30
0.0
 10
251.085465
 20
234.553201
 30
0.0
 10
251.085281
 20
234.067350
 30
0.0
  0
LWPOLYLINE
  5
4c3
100
AcDbEntity
  8
0
 62
7
100
AcDbPolyline
 90
2
 70
0
 10
244.356988
 20
186.569723
 30
0.0
 10
262.356988
 20
186.569723
 30
0.0
  0
SPLINE
  5
4c4
100
AcDbEntity
  8
0
 62
7
100
AcDbSpline
 70
8
 71
3
 72
8
 73
4
 74
0
 40
0
 40
0
 40
0
 40
0
 40
1
 40
1
 40
1
 40
1
 10
260.078869
 20
234.067328
 30
0.0
 10
260.079339
 20
233.583658
 30
0.0
 10
259.630904
 20
233.136614
 30
0.0
 10
258.902596
 20
232.894701
 30
0.0
  0
SPLINE
  5
4c5
100
AcDbEntity
  8
0
 62
7
100
AcDbSpline
 70
8
 71
3
 72
8
 73
4
 74
0
 40
0
 40
0
 40
0
 40
0
 40
1
 40
1
 40
1
 40
1
 10
258.902596
 20
232.894701
 30
0.0
 10
258.174288
 20
232.652789
 30
0.0
 10
257.276840
 20
232.652789
 30
0.0
 10
256.548532
 20
232.894701
 30
0.0
  0
SPLINE
  5
4c6
100
AcDbEntity
  8
0
 62
7
100
AcDbSpline
 70
8
 71
3
 72
8
 73
4
 74
0
 40
0
 40
0
 40
0
 40
0
 40
1
 40
1
 40
1
 40
1
 10
256.548532
 20
232.894701
 30
0.0
 10
255.820225
 20
233.136614
 30
0.0
 10
255.371790
 20
233.583658
 30
0.0
 10
255.372260
 20
234.067328
 30
0.0
  0
SPLINE
  5
4c7
100
AcDbEntity
  8
0
 62
7
100
AcDbSpline
 70
8
 71
3
 72
8
 73
4
 74
0
 40
0
 40
0
 40
0
 40
0
 40
1
 40
1
 40
1
 40
1
 10
255.372260
 20
234.067328
 30
0.0
 10
255.371790
 20
234.550997
 30
0.0
 10
255.820225
 20
234.998041
 30
0.0
 10
256.548532
 20
235.239954
 30
0.0
  0
SPLINE
  5
4c8
100
AcDbEntity
  8
0
 62
7
100
AcDbSpline
 70
8
 71
3
 72
8
 73
4
 74
0
 40
0
 40
0
 40
0
 40
0
 40
1
 40
1
 40
1
 40
1
 10
256.548532
 20
235.239954
 30
0.0
 10
257.276840
 20
235.481867
 30
0.0
 10
258.174288
 20
235.481867
 30
0.0
 10
258.902596
 20
235.239954
 30
0.0
  0
SPLINE
  5
4c9
100
AcDbEntity
  8
0
 62
7
100
AcDbSpline
 70
8
 71
3
 72
8
 73
4
 74
0
 40
0
 40
0
 40
0
 40
0
 40
1
 40
1
 40
1
 40
1
 10
258.902596
 20
235.239954
 30
0.0
 10
259.630904
 20
234.998041
 30
0.0
 10
260.079339
 20
234.550997
 30
0.0
 10
260.078869
 20
234.067328
 30
0.0
  0
LWPOLYLINE
  5
4ca
100
AcDbEntity
  8
0
 62
7
100
AcDbPolyline
 90
2
 70
1
 10
251.085281
 20
234.067350
 30
0.0
 10
251.085281
 20
234.067350
 30
0.0
  0
SPLINE
  5
4cb
100
AcDbEntity
  8
0
 62
7
100
AcDbSpline
 70
8
 71
3
 72
8
 73
4
 74
0
 40
0
 40
0
 40
0
 40
0
 40
1
 40
1
 40
1
 40
1
 10
248.287261
 20
226.504418
 30
0.0
 10
248.287261
 20
226.504418
 30
0.0
 10
251.270816
 20
223.492261
 30
0.0
 10
253.192591
 20
223.474650
 30
0.0
  0
SPLINE
  5
4cc
100
AcDbEntity
  8
0
 62
7
100
AcDbSpline
 70
8
 71
3
 72
8
 73
4
 74
0
 40
0
 40
0
 40
0
 40
0
 40
1
 40
1
 40
1
 40
1
 10
253.192591
 20
223.474650
 30
0.0
 10
255.204957
 20
223.456306
 30
0.0
 10
258.386468
 20
226.552509
 30
0.0
 10
258.386468
 20
226.552509
 30
0.0
  0
SPLINE
  5
4cd
100
AcDbEntity
  8
0
 62
7
100
AcDbSpline
 70
8
 71
3
 72
8
 73
4
 74
0
 40
0
 40
0
 40
0
 40
0
 40
1
 40
1
 40
1
 40
1
 10
258.386468
 20
226.552509
 30
0.0
 10
258.386468
 20
226.552509
 30
0.0
 10
254.982775
 20
225.641157
 30
0.0
 10
253.240682
 20
225.638786
 30
0.0
  0
SPLINE
  5
4ce
100
AcDbEntity
  8
0
 62
7
100
AcDbSpline
 70
8
 71
3
 72
8
 73
4
 74
0
 40
0
 40
0
 40
0
 40
0
 40
1
 40
1
 40
1
 40
1
 10
253.240682
 20
225.638786
 30
0.0
 10
251.564522
 20
225.635964
 30
0.0
 10
248.287261
 20
226.504418
 30
0.0
 10
248.287261
 20
226.504418
 30
0.0
  0
LWPOLYLINE
  5
4cf
100
AcDbEntity
  8
0
 62
7
100
AcDbPolyline
 90
2
 70
1
 10
260.078869
 20
234.067328
 30
0.0
 10
260.078869
 20
234.067328
 30
0.0
  0
SPLINE
  5
4d0
100
AcDbEntity
  8
0
 62
7
100
AcDbSpline
 70
8
 71
3
 72
8
 73
4
 74
0
 40
0
 40
0
 40
0
 40
0
 40
1
 40
1
 40
1
 40
1
 10
252.230377
 20
233.286885
 30
0.0
 10
252.230377
 20
233.286885
 30
0.0
 10
253.907503
 20
231.843151
 30
0.0
 10
254.494559
 20
231.015458
 30
0.0
  0
SPLINE
  5
4d1
100
AcDbEntity
  8
0
 62
7
100
AcDbSpline
 70
8
 71
3
 72
8
 73
4
 74
0
 40
0
 40
0
 40
0
 40
0
 40
1
 40
1
 40
1
 40
1
 10
254.494559
 20
231.015458
 30
0.0
 10
255.081609
 20
230.187766
 30
0.0
 10
255.713736
 20
228.375721
 30
0.0
 10
255.713736
 20
228.375721
 30
0.0
  0
SPLINE
  5
4d2
100
AcDbEntity
  8
0
 62
7
100
AcDbSpline
 70
8
 71
3
 72
8
 73
4
 74
0
 40
0
 40
0
 40
0
 40
0
 40
1
 40
1
 40
1
 40
1
 10
255.713736
 20
228.375721
 30
0.0
 10
255.713736
 20
228.375721
 30
0.0
 10
254.699057
 20
228.130896
 30
0.0
 10
254.233308
 20
228.252932
 30
0.0
  0
SPLINE
  5
4d3
100
AcDbEntity
  8
0
 62
7
100
AcDbSpline
 70
8
 71
3
 72
8
 73
4
 74
0
 40
0
 40
0
 40
0
 40
0
 40
1
 40
1
 40
1
 40
1
 10
254.233308
 20
228.252932
 30
0.0
 10
253.790375
 20
228.369013
 30
0.0
 10
253.747833
 20
228.996232
 30
0.0
 10
253.275387
 20
228.989608
 30
0.0
  0
SPLINE
  5
4d4
100
AcDbEntity
  8
0
 62
7
100
AcDbSpline
 70
8
 71
3
 72
8
 73
4
 74
0
 40
0
 40
0
 40
0
 40
0
 40
1
 40
1
 40
1
 40
1
 10
253.275387
 20
228.989608
 30
0.0
 10
252.781154
 20
228.982609
 30
0.0
 10
252.317460
 20
228.191565
 30
0.0
 10
252.317460
 20
228.191565
 30
0.0
  0
SPLINE
  5
4d5
100
AcDbEntity
  8
0
 62
7
100
AcDbSpline
 70
8
 71
3
 72
8
 73
4
 74
0
 40
0
 40
0
 40
0
 40
0
 40
1
 40
1
 40
1
 40
1
 10
249.900725
 20
233.967362
 30
0.0
 10
249.900923
 20
233.690292
 30
0.0
 10
249.753222
 20
233.434184
 30
0.0
 10
249.513305
 20
233.295591
 30
0.0
  0
SPLINE
  5
4d6
100
AcDbEntity
  8
0
 62
7
100
AcDbSpline
 70
8
 71
3
 72
8
 73
4
 74
0
 40
0
 40
0
 40
0
 40
0
 40
1
 40
1
 40
1
 40
1
 10
249.513305
 20
233.295591
 30
0.0
 10
249.273388
 20
233.156999
 30
0.0
 10
248.977741
 20
233.156999
 30
0.0
 10
248.737824
 20
233.295591
 30
0.0
  0
SPLINE
  5
4d7
100
AcDbEntity
  8
0
 62
7
100
AcDbSpline
 70
8
 71
3
 72
8
 73
4
 74
0
 40
0
 40
0
 40
0
 40
0
 40
1
 40
1
 40
1
 40
1
 10
248.737824
 20
233.295591
 30
0.0
 10
248.497907
 20
233.434184
 30
0.0
 10
248.350206
 20
233.690292
 30
0.0
 10
248.350404
 20
233.967362
 30
0.0
  0
SPLINE
  5
4d8
100
AcDbEntity
  8
0
 62
7
100
AcDbSpline
 70
8
 71
3
 72
8
 73
4
 74
0
 40
0
 40
0
 40
0
 40
0
 40
1
 40
1
 40
1
 40
1
 10
248.350404
 20
233.967362
 30
0.0
 10
248.350206
 20
234.244432
 30
0.0
 10
248.497907
 20
234.500540
 30
0.0
 10
248.737824
 20
234.639132
 30
0.0
  0
SPLINE
  5
4d9
100
AcDbEntity
  8
0
 62
7
100
AcDbSpline
 70
8
 71
3
 72
8
 73
4
 74
0
 40
0
 40
0
 40
0
 40
0
 40
1
 40
1
 40
1
 40
1
 10
248.737824
 20
234.639132
 30
0.0
 10
248.977741
 20
234.777724
 30
0.0
 10
249.273388
 20
234.777724
 30
0.0
 10
249.513305
 20
234.639132
 30
0.0
  0
SPLINE
  5
4da
100
AcDbEntity
  8
0
 62
7
100
AcDbSpline
 70
8
 71
3
 72
8
 73
4
 74
0
 40
0
 40
0
 40
0
 40
0
 40
1
 40
1
 40
1
 40
1
 10
249.513305
 20
234.639132
 30
0.0
 10
249.753222
 20
234.500540
 30
0.0
 10
249.900923
 20
234.244432
 30
0.0
 10
249.900725
 20
233.967362
 30
0.0
  0
LWPOLYLINE
  5
4db
100
AcDbEntity
  8
0
 62
7
100
AcDbPolyline
 90
2
 70
1
 10
248.287261
 20
226.504418
 30
0.0
 10
248.287261
 20
226.504418
 30
0.0
  0
SPLINE
  5
4dc
100
AcDbEntity
  8
0
 62
7
100
AcDbSpline
 70
8
 71
3
 72
8
 73
4
 74
0
 40
0
 40
0
 40
0
 40
0
 40
1
 40
1
 40
1
 40
1
 10
258.890377
 20
233.967353
 30
0.0
 10
258.890692
 20
233.693902
 30
0.0
 10
258.744989
 20
233.441088
 30
0.0
 10
258.508226
 20
233.304272
 30
0.0
  0
SPLINE
  5
4dd
100
AcDbEntity
  8
0
 62
7
100
AcDbSpline
 70
8
 71
3
 72
8
 73
4
 74
0
 40
0
 40
0
 40
0
 40
0
 40
1
 40
1
 40
1
 40
1
 10
258.508226
 20
233.304272
 30
0.0
 10
258.271463
 20
233.167455
 30
0.0
 10
257.979668
 20
233.167455
 30
0.0
 10
257.742905
 20
233.304272
 30
0.0
  0
SPLINE
  5
4de
100
AcDbEntity
  8
0
 62
7
100
AcDbSpline
 70
8
 71
3
 72
8
 73
4
 74
0
 40
0
 40
0
 40
0
 40
0
 40
1
 40
1
 40
1
 40
1
 10
257.742905
 20
233.304272
 30
0.0
 10
257.506142
 20
233.441088
 30
0.0
 10
257.360438
 20
233.693902
 30
0.0
 10
257.360754
 20
233.967353
 30
0.0
  0
SPLINE
  5
4df
100
AcDbEntity
  8
0
 62
7
100
AcDbSpline
 70
8
 71
3
 72
8
 73
4
 74
0
 40
0
 40
0
 40
0
 40
0
 40
1
 40
1
 40
1
 40
1
 10
257.360754
 20
233.967353
 30
0.0
 10
257.360438
 20
234.240804
 30
0.0
 10
257.506142
 20
234.493618
 30
0.0
 10
257.742905
 20
234.630435
 30
0.0
  0
SPLINE
  5
4e0
100
AcDbEntity
  8
0
 62
7
100
AcDbSpline
 70
8
 71
3
 72
8
 73
4
 74
0
 40
0
 40
0
 40
0
 40
0
 40
1
 40
1
 40
1
 40
1
 10
257.742905
 20
234.630435
 30
0.0
 10
257.979668
 20
234.767251
 30
0.0
 10
258.271463
 20
234.767251
 30
0.0
 10
258.508226
 20
234.630435
 30
0.0
  0
SPLINE
  5
4e1
100
AcDbEntity
  8
0
 62
7
100
AcDbSpline
 70
8
 71
3
 72
8
 73
4
 74
0
 40
0
 40
0
 40
0
 40
0
 40
1
 40
1
 40
1
 40
1
 10
258.508226
 20
234.630435
 30
0.0
 10
258.744989
 20
234.493618
 30
0.0
 10
258.890692
 20
234.240804
 30
0.0
 10
258.890377
 20
233.967353
 30
0.0
  0
LWPOLYLINE
  5
4e2
100
AcDbEntity
  8
0
 62
7
100
AcDbPolyline
 90
2
 70
1
 10
249.900725
 20
233.967362
 30
0.0
 10
249.900725
 20
233.967362
 30
0.0
  0
SPLINE
  5
4e3
100
AcDbEntity
  8
0
 62
1
100
AcDbSpline
 70
8
 71
3
 72
8
 73
4
 74
0
 40
0
 40
0
 40
0
 40
0
 40
1
 40
1
 40
1
 40
1
 10
253.225563
 20
145.250002
 30
0.0
 10
247.955103
 20
145.250002
 30
0.0
 10
242.501187
 20
153.331695
 30
0.0
 10
238.225565
 20
150.250003
 30
0.0
  0
SPLINE
  5
4e4
100
AcDbEntity
  8
0
 62
1
100
AcDbSpline
 70
8
 71
3
 72
8
 73
4
 74
0
 40
0
 40
0
 40
0
 40
0
 40
1
 40
1
 40
1
 40
1
 10
238.225565
 20
150.250003
 30
0.0
 10
230.113143
 20
144.402901
 30
0.0
 10
237.727429
 20
130.237589
 30
0.0
 10
238.225565
 20
120.250001
 30
0.0
  0
SPLINE
  5
4e5
100
AcDbEntity
  8
0
 62
1
100
AcDbSpline
 70
8
 71
3
 72
8
 73
4
 74
0
 40
0
 40
0
 40
0
 40
0
 40
1
 40
1
 40
1
 40
1
 10
238.225565
 20
120.250001
 30
0.0
 10
238.884675
 20
107.034906
 30
0.0
 10
241.622570
 20
83.497214
 30
0.0
 10
242.743672
 20
74.192150
 30
0.0
  0
SPLINE
  5
4e6
100
AcDbEntity
  8
0
 62
1
100
AcDbSpline
 70
8
 71
3
 72
8
 73
4
 74
0
 40
0
 40
0
 40
0
 40
0
 40
1
 40
1
 40
1
 40
1
 10
242.743672
 20
74.192150
 30
0.0
 10
243.041775
 20
71.717930
 30
0.0
 10
244.477366
 20
70.680724
 30
0.0
 10
243.225564
 20
70.250000
 30
0.0
  0
SPLINE
  5
4e7
100
AcDbEntity
  8
0
 62
1
100
AcDbSpline
 70
8
 71
3
 72
8
 73
4
 74
0
 40
0
 40
0
 40
0
 40
0
 40
1
 40
1
 40
1
 40
1
 10
243.225564
 20
70.250000
 30
0.0
 10
242.117522
 20
69.868740
 30
0.0
 10
242.458049
 20
71.854975
 30
0.0
 10
241.414696
 20
73.263100
 30
0.0
  0
SPLINE
  5
4e8
100
AcDbEntity
  8
0
 62
1
100
AcDbSpline
 70
8
 71
3
 72
8
 73
4
 74
0
 40
0
 40
0
 40
0
 40
0
 40
1
 40
1
 40
1
 40
1
 10
241.414696
 20
73.263100
 30
0.0
 10
240.457280
 20
74.555243
 30
0.0
 10
239.267597
 20
75.681626
 30
0.0
 10
238.225562
 20
75.250001
 30
0.0
  0
SPLINE
  5
4e9
100
AcDbEntity
  8
0
 62
1
100
AcDbSpline
 70
8
 71
3
 72
8
 73
4
 74
0
 40
0
 40
0
 40
0
 40
0
 40
1
 40
1
 40
1
 40
1
 10
238.225562
 20
75.250001
 30
0.0
 10
233.606166
 20
73.336585
 30
0.0
 10
233.606163
 20
62.163413
 30
0.0
 10
238.225565
 20
60.250000
 30
0.0
  0
SPLINE
  5
4ea
100
AcDbEntity
  8
0
 62
1
100
AcDbSpline
 70
8
 71
3
 72
8
 73
4
 74
0
 40
0
 40
0
 40
0
 40
0
 40
1
 40
1
 40
1
 40
1
 10
238.225565
 20
60.250000
 30
0.0
 10
239.521420
 20
59.713241
 30
0.0
 10
241.045609
 20
61.585930
 30
0.0
 10
242.067484
 20
63.190504
 30
0.0
  0
SPLINE
  5
4eb
100
AcDbEntity
  8
0
 62
1
100
AcDbSpline
 70
8
 71
3
 72
8
 73
4
 74
0
 40
0
 40
0
 40
0
 40
0
 40
1
 40
1
 40
1
 40
1
 10
242.067484
 20
63.190504
 30
0.0
 10
242.762809
 20
64.282320
 30
0.0
 10
242.441545
 20
65.324903
 30
0.0
 10
243.225564
 20
65.250001
 30
0.0
  0
SPLINE
  5
4ec
100
AcDbEntity
  8
0
 62
1
100
AcDbSpline
 70
8
 71
3
 72
8
 73
4
 74
0
 40
0
 40
0
 40
0
 40
0
 40
1
 40
1
 40
1
 40
1
 10
243.225564
 20
65.250001
 30
0.0
 10
243.944096
 20
65.181353
 30
0.0
 10
243.910325
 20
63.195714
 30
0.0
 10
243.910325
 20
63.195714
 30
0.0
  0
LWPOLYLINE
  5
4ed
100
AcDbEntity
  8
0
 62
7
100
AcDbPolyline
 90
2
 70
1
 10
258.890377
 20
233.967353
 30
0.0
 10
258.890377
 20
233.967353
 30
0.0
  0
SPLINE
  5
4ee
100
AcDbEntity
  8
0
 62
1
100
AcDbSpline
 70
8
 71
3
 72
8
 73
4
 74
0
 40
0
 40
0
 40
0
 40
0
 40
1
 40
1
 40
1
 40
1
 10
247.583148
 20
52.177253
 30
0.0
 10
248.244148
 20
51.032368
 30
0.0
 10
247.879210
 20
50.250003
 30
0.0
 10
247.385999
 20
50.250003
 30
0.0
  0
LWPOLYLINE
  5
4ef
100
AcDbEntity
  8
0
 62
1
100
AcDbPolyline
 90
2
 70
1
 10
243.910325
 20
63.195714
 30
0.0
 10
247.583148
 20
52.177253
 30
0.0
  0
SPLINE
  5
4f0
100
AcDbEntity
  8
0
 62
1
100
AcDbSpline
 70
8
 71
3
 72
8
 73
4
 74
0
 40
0
 40
0
 40
0
 40
0
 40
1
 40
1
 40
1
 40
1
 10
233.225564
 20
50.250003
 30
0.0
 10
233.225564
 20
50.250003
 30
0.0
 10
231.310957
 20
33.360411
 30
0.0
 10
233.225564
 20
25.250002
 30
0.0
  0
SPLINE
  5
4f1
100
AcDbEntity
  8
0
 62
1
100
AcDbSpline
 70
8
 71
3
 72
8
 73
4
 74
0
 40
0
 40
0
 40
0
 40
0
 40
1
 40
1
 40
1
 40
1
 10
233.225564
 20
25.250002
 30
0.0
 10
234.081803
 20
21.622919
 30
0.0
 10
234.546909
 20
15.846967
 30
0.0
 10
238.225565
 20
15.250002
 30
0.0
  0
SPLINE
  5
4f2
100
AcDbEntity
  8
0
 62
1
100
AcDbSpline
 70
8
 71
3
 72
8
 73
4
 74
0
 40
0
 40
0
 40
0
 40
0
 40
1
 40
1
 40
1
 40
1
 10
238.225565
 20
15.250002
 30
0.0
 10
239.578838
 20
15.030397
 30
0.0
 10
241.049452
 20
16.757882
 30
0.0
 10
242.043058
 20
18.241679
 30
0.0
  0
SPLINE
  5
4f3
100
AcDbEntity
  8
0
 62
1
100
AcDbSpline
 70
8
 71
3
 72
8
 73
4
 74
0
 40
0
 40
0
 40
0
 40
0
 40
1
 40
1
 40
1
 40
1
 10
242.043058
 20
18.241679
 30
0.0
 10
242.757687
 20
19.308869
 30
0.0
 10
242.476035
 20
20.454276
 30
0.0
 10
243.225564
 20
20.250004
 30
0.0
  0
SPLINE
  5
4f4
100
AcDbEntity
  8
0
 62
1
100
AcDbSpline
 70
8
 71
3
 72
8
 73
4
 74
0
 40
0
 40
0
 40
0
 40
0
 40
1
 40
1
 40
1
 40
1
 10
243.225564
 20
20.250004
 30
0.0
 10
246.441599
 20
19.373523
 30
0.0
 10
244.978003
 20
13.085505
 30
0.0
 10
243.225564
 20
10.250004
 30
0.0
  0
SPLINE
  5
4f5
100
AcDbEntity
  8
0
 62
1
100
AcDbSpline
 70
8
 71
3
 72
8
 73
4
 74
0
 40
0
 40
0
 40
0
 40
0
 40
1
 40
1
 40
1
 40
1
 10
243.225564
 20
10.250004
 30
0.0
 10
241.266281
 20
7.079813
 30
0.0
 10
235.184849
 20
8.420191
 30
0.0
 10
233.225564
 20
5.250003
 30
0.0
  0
SPLINE
  5
4f6
100
AcDbEntity
  8
0
 62
1
100
AcDbSpline
 70
8
 71
3
 72
8
 73
4
 74
0
 40
0
 40
0
 40
0
 40
0
 40
1
 40
1
 40
1
 40
1
 10
233.225564
 20
5.250003
 30
0.0
 10
232.349346
 20
3.832251
 30
0.0
 10
233.225564
 20
0.250001
 30
0.0
 10
233.225564
 20
0.250001
 30
0.0
  0
LWPOLYLINE
  5
4f7
100
AcDbEntity
  8
0
 62
1
100
AcDbPolyline
 90
3
 70
1
 10
247.385999
 20
50.250003
 30
0.0
 10
245.387761
 20
50.250003
 30
0.0
 10
233.225564
 20
50.250003
 30
0.0
  0
SPLINE
  5
4f8
100
AcDbEntity
  8
0
 62
1
100
AcDbSpline
 70
8
 71
3
 72
8
 73
4
 74
0
 40
0
 40
0
 40
0
 40
0
 40
1
 40
1
 40
1
 40
1
 10
273.225566
 20
0.250001
 30
0.0
 10
273.225566
 20
0.250001
 30
0.0
 10
274.101784
 20
3.832251
 30
0.0
 10
273.225566
 20
5.250003
 30
0.0
  0
SPLINE
  5
4f9
100
AcDbEntity
  8
0
 62
1
100
AcDbSpline
 70
8
 71
3
 72
8
 73
4
 74
0
 40
0
 40
0
 40
0
 40
0
 40
1
 40
1
 40
1
 40
1
 10
273.225566
 20
5.250003
 30
0.0
 10
271.266280
 20
8.420191
 30
0.0
 10
265.184849
 20
7.079813
 30
0.0
 10
263.225566
 20
10.250004
 30
0.0
  0
SPLINE
  5
4fa
100
AcDbEntity
  8
0
 62
1
100
AcDbSpline
 70
8
 71
3
 72
8
 73
4
 74
0
 40
0
 40
0
 40
0
 40
0
 40
1
 40
1
 40
1
 40
1
 10
263.225566
 20
10.250004
 30
0.0
 10
261.473127
 20
13.085505
 30
0.0
 10
260.009364
 20
19.374130
 30
0.0
 10
263.225566
 20
20.250004
 30
0.0
  0
SPLINE
  5
4fb
100
AcDbEntity
  8
0
 62
1
100
AcDbSpline
 70
8
 71
3
 72
8
 73
4
 74
0
 40
0
 40
0
 40
0
 40
0
 40
1
 40
1
 40
1
 40
1
 10
263.225566
 20
20.250004
 30
0.0
 10
263.970237
 20
20.452800
 30
0.0
 10
263.689745
 20
19.316308
 30
0.0
 10
264.399596
 20
18.254351
 30
0.0
  0
SPLINE
  5
4fc
100
AcDbEntity
  8
0
 62
1
100
AcDbSpline
 70
8
 71
3
 72
8
 73
4
 74
0
 40
0
 40
0
 40
0
 40
0
 40
1
 40
1
 40
1
 40
1
 10
264.399596
 20
18.254351
 30
0.0
 10
265.393301
 20
16.767737
 30
0.0
 10
266.868437
 20
15.029770
 30
0.0
 10
268.225564
 20
15.250002
 30
0.0
  0
SPLINE
  5
4fd
100
AcDbEntity
  8
0
 62
1
100
AcDbSpline
 70
8
 71
3
 72
8
 73
4
 74
0
 40
0
 40
0
 40
0
 40
0
 40
1
 40
1
 40
1
 40
1
 10
268.225564
 20
15.250002
 30
0.0
 10
271.904221
 20
15.846967
 30
0.0
 10
272.369326
 20
21.622919
 30
0.0
 10
273.225566
 20
25.250002
 30
0.0
  0
SPLINE
  5
4fe
100
AcDbEntity
  8
0
 62
1
100
AcDbSpline
 70
8
 71
3
 72
8
 73
4
 74
0
 40
0
 40
0
 40
0
 40
0
 40
1
 40
1
 40
1
 40
1
 10
273.225566
 20
25.250002
 30
0.0
 10
275.140173
 20
33.360411
 30
0.0
 10
273.225566
 20
50.250003
 30
0.0
 10
273.225566
 20
50.250003
 30
0.0
  0
LWPOLYLINE
  5
4ff
100
AcDbEntity
  8
0
 62
1
100
AcDbPolyline
 90
2
 70
1
 10
233.225564
 20
0.250001
 30
0.0
 10
273.225566
 20
0.250001
 30
0.0
  0
SPLINE
  5
500
100
AcDbEntity
  8
0
 62
1
100
AcDbSpline
 70
8
 71
3
 72
8
 73
4
 74
0
 40
0
 40
0
 40
0
 40
0
 40
1
 40
1
 40
1
 40
1
 10
259.319148
 20
50.250003
 30
0.0
 10
259.319148
 20
50.250003
 30
0.0
 10
258.481497
 20
51.017800
 30
0.0
 10
258.884940
 20
52.228129
 30
0.0
  0
LWPOLYLINE
  5
501
100
AcDbEntity
  8
0
 62
1
100
AcDbPolyline
 90
3
 70
1
 10
273.225566
 20
50.250003
 30
0.0
 10
261.373675
 20
50.250003
 30
0.0
 10
259.319148
 20
50.250003
 30
0.0
  0
SPLINE
  5
502
100
AcDbEntity
  8
0
 62
1
100
AcDbSpline
 70
8
 71
3
 72
8
 73
4
 74
0
 40
0
 40
0
 40
0
 40
0
 40
1
 40
1
 40
1
 40
1
 10
262.529617
 20
63.162155
 30
0.0
 10
262.529617
 20
63.162155
 30
0.0
 10
262.495296
 20
65.180230
 30
0.0
 10
263.225566
 20
65.250001
 30
0.0
  0
SPLINE
  5
503
100
AcDbEntity
  8
0
 62
1
100
AcDbSpline
 70
8
 71
3
 72
8
 73
4
 74
0
 40
0
 40
0
 40
0
 40
0
 40
1
 40
1
 40
1
 40
1
 10
263.225566
 20
65.250001
 30
0.0
 10
264.009712
 20
65.324920
 30
0.0
 10
263.688413
 20
64.282128
 30
0.0
 10
264.383851
 20
63.190180
 30
0.0
  0
SPLINE
  5
504
100
AcDbEntity
  8
0
 62
1
100
AcDbSpline
 70
8
 71
3
 72
8
 73
4
 74
0
 40
0
 40
0
 40
0
 40
0
 40
1
 40
1
 40
1
 40
1
 10
264.383851
 20
63.190180
 30
0.0
 10
265.405727
 20
61.585676
 30
0.0
 10
266.929798
 20
59.713278
 30
0.0
 10
268.225564
 20
60.250000
 30
0.0
  0
SPLINE
  5
505
100
AcDbEntity
  8
0
 62
1
100
AcDbSpline
 70
8
 71
3
 72
8
 73
4
 74
0
 40
0
 40
0
 40
0
 40
0
 40
1
 40
1
 40
1
 40
1
 10
268.225564
 20
60.250000
 30
0.0
 10
272.844964
 20
62.163410
 30
0.0
 10
272.844961
 20
73.336585
 30
0.0
 10
268.225564
 20
75.250001
 30
0.0
  0
SPLINE
  5
506
100
AcDbEntity
  8
0
 62
1
100
AcDbSpline
 70
8
 71
3
 72
8
 73
4
 74
0
 40
0
 40
0
 40
0
 40
0
 40
1
 40
1
 40
1
 40
1
 10
268.225564
 20
75.250001
 30
0.0
 10
266.901313
 20
75.798525
 30
0.0
 10
265.338609
 20
73.830841
 30
0.0
 10
264.317196
 20
72.204425
 30
0.0
  0
SPLINE
  5
507
100
AcDbEntity
  8
0
 62
1
100
AcDbSpline
 70
8
 71
3
 72
8
 73
4
 74
0
 40
0
 40
0
 40
0
 40
0
 40
1
 40
1
 40
1
 40
1
 10
264.317196
 20
72.204425
 30
0.0
 10
263.658994
 20
71.156353
 30
0.0
 10
263.934827
 20
70.018106
 30
0.0
 10
263.225566
 20
70.250000
 30
0.0
  0
SPLINE
  5
508
100
AcDbEntity
  8
0
 62
1
100
AcDbSpline
 70
8
 71
3
 72
8
 73
4
 74
0
 40
0
 40
0
 40
0
 40
0
 40
1
 40
1
 40
1
 40
1
 10
263.225566
 20
70.250000
 30
0.0
 10
262.603263
 20
70.453462
 30
0.0
 10
263.313275
 20
70.950534
 30
0.0
 10
263.465788
 20
72.199410
 30
0.0
  0
SPLINE
  5
509
100
AcDbEntity
  8
0
 62
1
100
AcDbSpline
 70
8
 71
3
 72
8
 73
4
 74
0
 40
0
 40
0
 40
0
 40
0
 40
1
 40
1
 40
1
 40
1
 10
263.465788
 20
72.199410
 30
0.0
 10
264.364330
 20
79.557259
 30
0.0
 10
267.512267
 20
105.948458
 30
0.0
 10
268.225564
 20
120.250001
 30
0.0
  0
SPLINE
  5
50a
100
AcDbEntity
  8
0
 62
1
100
AcDbSpline
 70
8
 71
3
 72
8
 73
4
 74
0
 40
0
 40
0
 40
0
 40
0
 40
1
 40
1
 40
1
 40
1
 10
268.225564
 20
120.250001
 30
0.0
 10
268.723701
 20
130.237589
 30
0.0
 10
276.337986
 20
144.402901
 30
0.0
 10
268.225564
 20
150.250003
 30
0.0
  0
SPLINE
  5
50b
100
AcDbEntity
  8
0
 62
1
100
AcDbSpline
 70
8
 71
3
 72
8
 73
4
 74
0
 40
0
 40
0
 40
0
 40
0
 40
1
 40
1
 40
1
 40
1
 10
268.225564
 20
150.250003
 30
0.0
 10
263.949943
 20
153.331695
 30
0.0
 10
258.496027
 20
145.250002
 30
0.0
 10
253.225563
 20
145.250002
 30
0.0
  0
LWPOLYLINE
  5
50c
100
AcDbEntity
  8
0
 62
1
100
AcDbPolyline
 90
2
 70
1
 10
258.884940
 20
52.228129
 30
0.0
 10
262.529617
 20
63.162155
 30
0.0
  0
LWPOLYLINE
  5
50d
100
AcDbEntity
  8
0
 62
1
100
AcDbPolyline
 90
2
 70
1
 10
253.225563
 20
145.250002
 30
0.0
 10
253.225563
 20
145.250002
 30
0.0
  0
LWPOLYLINE
  5
50e
100
AcDbEntity
  8
0
 62
7
100
AcDbPolyline
 90
2
 70
0
 10
233.225564
 20
40.249983
 30
0.0
 10
273.225566
 20
40.249983
 30
0.0
  0
LWPOLYLINE
  5
50f
100
AcDbEntity
  8
0
 62
7
100
AcDbPolyline
 90
2
 70
0
 10
233.225564
 20
30.250003
 30
0.0
 10
273.225566
 20
30.250003
 30
0.0
  0
SPLINE
  5
510
100
AcDbEntity
  8
0
 62
7
100
AcDbSpline
 70
8
 71
3
 72
8
 73
4
 74
0
 40
0
 40
0
 40
0
 40
0
 40
1
 40
1
 40
1
 40
1
 10
251.085281
 20
67.749996
 30
0.0
 10
251.085465
 20
67.264146
 30
0.0
 10
250.635746
 20
66.815156
 30
0.0
 10
249.905572
 20
66.572200
 30
0.0
  0
SPLINE
  5
511
100
AcDbEntity
  8
0
 62
7
100
AcDbSpline
 70
8
 71
3
 72
8
 73
4
 74
0
 40
0
 40
0
 40
0
 40
0
 40
1
 40
1
 40
1
 40
1
 10
249.905572
 20
66.572200
 30
0.0
 10
249.175398
 20
66.329244
 30
0.0
 10
248.275733
 20
66.329244
 30
0.0
 10
247.545558
 20
66.572200
 30
0.0
  0
SPLINE
  5
512
100
AcDbEntity
  8
0
 62
7
100
AcDbSpline
 70
8
 71
3
 72
8
 73
4
 74
0
 40
0
 40
0
 40
0
 40
0
 40
1
 40
1
 40
1
 40
1
 10
247.545558
 20
66.572200
 30
0.0
 10
246.815384
 20
66.815156
 30
0.0
 10
246.365665
 20
67.264146
 30
0.0
 10
246.365849
 20
67.749996
 30
0.0
  0
SPLINE
  5
513
100
AcDbEntity
  8
0
 62
7
100
AcDbSpline
 70
8
 71
3
 72
8
 73
4
 74
0
 40
0
 40
0
 40
0
 40
0
 40
1
 40
1
 40
1
 40
1
 10
246.365849
 20
67.749996
 30
0.0
 10
246.365665
 20
68.235847
 30
0.0
 10
246.815384
 20
68.684836
 30
0.0
 10
247.545558
 20
68.927792
 30
0.0
  0
SPLINE
  5
514
100
AcDbEntity
  8
0
 62
7
100
AcDbSpline
 70
8
 71
3
 72
8
 73
4
 74
0
 40
0
 40
0
 40
0
 40
0
 40
1
 40
1
 40
1
 40
1
 10
247.545558
 20
68.927792
 30
0.0
 10
248.275733
 20
69.170748
 30
0.0
 10
249.175398
 20
69.170748
 30
0.0
 10
249.905572
 20
68.927792
 30
0.0
  0
SPLINE
  5
515
100
AcDbEntity
  8
0
 62
7
100
AcDbSpline
 70
8
 71
3
 72
8
 73
4
 74
0
 40
0
 40
0
 40
0
 40
0
 40
1
 40
1
 40
1
 40
1
 10
249.905572
 20
68.927792
 30
0.0
 10
250.635746
 20
68.684836
 30
0.0
 10
251.085465
 20
68.235847
 30
0.0
 10
251.085281
 20
67.749996
 30
0.0
  0
LWPOLYLINE
  5
516
100
AcDbEntity
  8
0
 62
7
100
AcDbPolyline
 90
2
 70
0
 10
244.356988
 20
20.252369
 30
0.0
 10
262.356988
 20
20.252369
 30
0.0
  0
SPLINE
  5
517
100
AcDbEntity
  8
0
 62
7
100
AcDbSpline
 70
8
 71
3
 72
8
 73
4
 74
0
 40
0
 40
0
 40
0
 40
0
 40
1
 40
1
 40
1
 40
1
 10
260.078869
 20
67.749973
 30
0.0
 10
260.079339
 20
67.266304
 30
0.0
 10
259.630904
 20
66.819260
 30
0.0
 10
258.902596
 20
66.577347
 30
0.0
  0
SPLINE
  5
518
100
AcDbEntity
  8
0
 62
7
100
AcDbSpline
 70
8
 71
3
 72
8
 73
4
 74
0
 40
0
 40
0
 40
0
 40
0
 40
1
 40
1
 40
1
 40
1
 10
258.902596
 20
66.577347
 30
0.0
 10
258.174288
 20
66.335435
 30
0.0
 10
257.276840
 20
66.335435
 30
0.0
 10
256.548532
 20
66.577347
 30
0.0
  0
SPLINE
  5
519
100
AcDbEntity
  8
0
 62
7
100
AcDbSpline
 70
8
 71
3
 72
8
 73
4
 74
0
 40
0
 40
0
 40
0
 40
0
 40
1
 40
1
 40
1
 40
1
 10
256.548532
 20
66.577347
 30
0.0
 10
255.820225
 20
66.819260
 30
0.0
 10
255.371790
 20
67.266304
 30
0.0
 10
255.372260
 20
67.749973
 30
0.0
  0
SPLINE
  5
51a
100
AcDbEntity
  8
0
 62
7
100
AcDbSpline
 70
8
 71
3
 72
8
 73
4
 74
0
 40
0
 40
0
 40
0
 40
0
 40
1
 40
1
 40
1
 40
1
 10
255.372260
 20
67.749973
 30
0.0
 10
255.371790
 20
68.233643
 30
0.0
 10
255.820225
 20
68.680687
 30
0.0
 10
256.548532
 20
68.922600
 30
0.0
  0
SPLINE
  5
51b
100
AcDbEntity
  8
0
 62
7
100
AcDbSpline
 70
8
 71
3
 72
8
 73
4
 74
0
 40
0
 40
0
 40
0
 40
0
 40
1
 40
1
 40
1
 40
1
 10
256.548532
 20
68.922600
 30
0.0
 10
257.276840
 20
69.164512
 30
0.0
 10
258.174288
 20
69.164512
 30
0.0
 10
258.902596
 20
68.922600
 30
0.0
  0
SPLINE
  5
51c
100
AcDbEntity
  8
0
 62
7
100
AcDbSpline
 70
8
 71
3
 72
8
 73
4
 74
0
 40
0
 40
0
 40
0
 40
0
 40
1
 40
1
 40
1
 40
1
 10
258.902596
 20
68.922600
 30
0.0
 10
259.630904
 20
68.680687
 30
0.0
 10
260.079339
 20
68.233643
 30
0.0
 10
260.078869
 20
67.749973
 30
0.0
  0
LWPOLYLINE
  5
51d
100
AcDbEntity
  8
0
 62
7
100
AcDbPolyline
 90
2
 70
1
 10
251.085281
 20
67.749996
 30
0.0
 10
251.085281
 20
67.749996
 30
0.0
  0
SPLINE
  5
51e
100
AcDbEntity
  8
0
 62
7
100
AcDbSpline
 70
8
 71
3
 72
8
 73
4
 74
0
 40
0
 40
0
 40
0
 40
0
 40
1
 40
1
 40
1
 40
1
 10
248.287261
 20
60.187064
 30
0.0
 10
248.287261
 20
60.187064
 30
0.0
 10
251.270816
 20
57.174906
 30
0.0
 10
253.192591
 20
57.157296
 30
0.0
  0
SPLINE
  5
51f
100
AcDbEntity
  8
0
 62
7
100
AcDbSpline
 70
8
 71
3
 72
8
 73
4
 74
0
 40
0
 40
0
 40
0
 40
0
 40
1
 40
1
 40
1
 40
1
 10
253.192591
 20
57.157296
 30
0.0
 10
255.204957
 20
57.138951
 30
0.0
 10
258.386468
 20
60.235155
 30
0.0
 10
258.386468
 20
60.235155
 30
0.0
  0
SPLINE
  5
520
100
AcDbEntity
  8
0
 62
7
100
AcDbSpline
 70
8
 71
3
 72
8
 73
4
 74
0
 40
0
 40
0
 40
0
 40
0
 40
1
 40
1
 40
1
 40
1
 10
258.386468
 20
60.235155
 30
0.0
 10
258.386468
 20
60.235155
 30
0.0
 10
254.982775
 20
59.323803
 30
0.0
 10
253.240682
 20
59.321432
 30
0.0
  0
SPLINE
  5
521
100
AcDbEntity
  8
0
 62
7
100
AcDbSpline
 70
8
 71
3
 72
8
 73
4
 74
0
 40
0
 40
0
 40
0
 40
0
 40
1
 40
1
 40
1
 40
1
 10
253.240682
 20
59.321432
 30
0.0
 10
251.564522
 20
59.318610
 30
0.0
 10
248.287261
 20
60.187064
 30
0.0
 10
248.287261
 20
60.187064
 30
0.0
  0
LWPOLYLINE
  5
522
100
AcDbEntity
  8
0
 62
7
100
AcDbPolyline
 90
2
 70
1
 10
260.078869
 20
67.749973
 30
0.0
 10
260.078869
 20
67.749973
 30
0.0
  0
SPLINE
  5
523
100
AcDbEntity
  8
0
 62
7
100
AcDbSpline
 70
8
 71
3
 72
8
 73
4
 74
0
 40
0
 40
0
 40
0
 40
0
 40
1
 40
1
 40
1
 40
1
 10
252.230377
 20
66.969530
 30
0.0
 10
252.230377
 20
66.969530
 30
0.0
 10
253.907503
 20
65.525797
 30
0.0
 10
254.494559
 20
64.698104
 30
0.0
  0
SPLINE
  5
524
100
AcDbEntity
  8
0
 62
7
100
AcDbSpline
 70
8
 71
3
 72
8
 73
4
 74
0
 40
0
 40
0
 40
0
 40
0
 40
1
 40
1
 40
1
 40
1
 10
254.494559
 20
64.698104
 30
0.0
 10
255.081609
 20
63.870411
 30
0.0
 10
255.713736
 20
62.058367
 30
0.0
 10
255.713736
 20
62.058367
 30
0.0
  0
SPLINE
  5
525
100
AcDbEntity
  8
0
 62
7
100
AcDbSpline
 70
8
 71
3
 72
8
 73
4
 74
0
 40
0
 40
0
 40
0
 40
0
 40
1
 40
1
 40
1
 40
1
 10
255.713736
 20
62.058367
 30
0.0
 10
255.713736
 20
62.058367
 30
0.0
 10
254.699057
 20
61.813542
 30
0.0
 10
254.233308
 20
61.935578
 30
0.0
  0
SPLINE
  5
526
100
AcDbEntity
  8
0
 62
7
100
AcDbSpline
 70
8
 71
3
 72
8
 73
4
 74
0
 40
0
 40
0
 40
0
 40
0
 40
1
 40
1
 40
1
 40
1
 10
254.233308
 20
61.935578
 30
0.0
 10
253.790375
 20
62.051658
 30
0.0
 10
253.747833
 20
62.678878
 30
0.0
 10
253.275387
 20
62.672254
 30
0.0
  0
SPLINE
  5
527
100
AcDbEntity
  8
0
 62
7
100
AcDbSpline
 70
8
 71
3
 72
8
 73
4
 74
0
 40
0
 40
0
 40
0
 40
0
 40
1
 40
1
 40
1
 40
1
 10
253.275387
 20
62.672254
 30
0.0
 10
252.781154
 20
62.665255
 30
0.0
 10
252.317460
 20
61.874211
 30
0.0
 10
252.317460
 20
61.874211
 30
0.0
  0
SPLINE
  5
528
100
AcDbEntity
  8
0
 62
7
100
AcDbSpline
 70
8
 71
3
 72
8
 73
4
 74
0
 40
0
 40
0
 40
0
 40
0
 40
1
 40
1
 40
1
 40
1
 10
249.900725
 20
67.650008
 30
0.0
 10
249.900923
 20
67.372937
 30
0.0
 10
249.753222
 20
67.116829
 30
0.0
 10
249.513305
 20
66.978237
 30
0.0
  0
SPLINE
  5
529
100
AcDbEntity
  8
0
 62
7
100
AcDbSpline
 70
8
 71
3
 72
8
 73
4
 74
0
 40
0
 40
0
 40
0
 40
0
 40
1
 40
1
 40
1
 40
1
 10
249.513305
 20
66.978237
 30
0.0
 10
249.273388
 20
66.839645
 30
0.0
 10
248.977741
 20
66.839645
 30
0.0
 10
248.737824
 20
66.978237
 30
0.0
  0
SPLINE
  5
52a
100
AcDbEntity
  8
0
 62
7
100
AcDbSpline
 70
8
 71
3
 72
8
 73
4
 74
0
 40
0
 40
0
 40
0
 40
0
 40
1
 40
1
 40
1
 40
1
 10
248.737824
 20
66.978237
 30
0.0
 10
248.497907
 20
67.116829
 30
0.0
 10
248.350206
 20
67.372937
 30
0.0
 10
248.350404
 20
67.650008
 30
0.0
  0
SPLINE
  5
52b
100
AcDbEntity
  8
0
 62
7
100
AcDbSpline
 70
8
 71
3
 72
8
 73
4
 74
0
 40
0
 40
0
 40
0
 40
0
 40
1
 40
1
 40
1
 40
1
 10
248.350404
 20
67.650008
 30
0.0
 10
248.350206
 20
67.927078
 30
0.0
 10
248.497907
 20
68.183186
 30
0.0
 10
248.737824
 20
68.321778
 30
0.0
  0
SPLINE
  5
52c
100
AcDbEntity
  8
0
 62
7
100
AcDbSpline
 70
8
 71
3
 72
8
 73
4
 74
0
 40
0
 40
0
 40
0
 40
0
 40
1
 40
1
 40
1
 40
1
 10
248.737824
 20
68.321778
 30
0.0
 10
248.977741
 20
68.460370
 30
0.0
 10
249.273388
 20
68.460370
 30
0.0
 10
249.513305
 20
68.321778
 30
0.0
  0
SPLINE
  5
52d
100
AcDbEntity
  8
0
 62
7
100
AcDbSpline
 70
8
 71
3
 72
8
 73
4
 74
0
 40
0
 40
0
 40
0
 40
0
 40
1
 40
1
 40
1
 40
1
 10
249.513305
 20
68.321778
 30
0.0
 10
249.753222
 20
68.183186
 30
0.0
 10
249.900923
 20
67.927078
 30
0.0
 10
249.900725
 20
67.650008
 30
0.0
  0
LWPOLYLINE
  5
52e
100
AcDbEntity
  8
0
 62
7
100
AcDbPolyline
 90
2
 70
1
 10
248.287261
 20
60.187064
 30
0.0
 10
248.287261
 20
60.187064
 30
0.0
  0
SPLINE
  5
52f
100
AcDbEntity
  8
0
 62
7
100
AcDbSpline
 70
8
 71
3
 72
8
 73
4
 74
0
 40
0
 40
0
 40
0
 40
0
 40
1
 40
1
 40
1
 40
1
 10
258.890377
 20
67.649999
 30
0.0
 10
258.890692
 20
67.376548
 30
0.0
 10
258.744989
 20
67.123734
 30
0.0
 10
258.508226
 20
66.986918
 30
0.0
  0
SPLINE
  5
530
100
AcDbEntity
  8
0
 62
7
100
AcDbSpline
 70
8
 71
3
 72
8
 73
4
 74
0
 40
0
 40
0
 40
0
 40
0
 40
1
 40
1
 40
1
 40
1
 10
258.508226
 20
66.986918
 30
0.0
 10
258.271463
 20
66.850101
 30
0.0
 10
257.979668
 20
66.850101
 30
0.0
 10
257.742905
 20
66.986918
 30
0.0
  0
SPLINE
  5
531
100
AcDbEntity
  8
0
 62
7
100
AcDbSpline
 70
8
 71
3
 72
8
 73
4
 74
0
 40
0
 40
0
 40
0
 40
0
 40
1
 40
1
 40
1
 40
1
 10
257.742905
 20
66.986918
 30
0.0
 10
257.506142
 20
67.123734
 30
0.0
 10
257.360438
 20
67.376548
 30
0.0
 10
257.360754
 20
67.649999
 30
0.0
  0
SPLINE
  5
532
100
AcDbEntity
  8
0
 62
7
100
AcDbSpline
 70
8
 71
3
 72
8
 73
4
 74
0
 40
0
 40
0
 40
0
 40
0
 40
1
 40
1
 40
1
 40
1
 10
257.360754
 20
67.649999
 30
0.0
 10
257.360438
 20
67.923450
 30
0.0
 10
257.506142
 20
68.176264
 30
0.0
 10
257.742905
 20
68.313080
 30
0.0
  0
SPLINE
  5
533
100
AcDbEntity
  8
0
 62
7
100
AcDbSpline
 70
8
 71
3
 72
8
 73
4
 74
0
 40
0
 40
0
 40
0
 40
0
 40
1
 40
1
 40
1
 40
1
 10
257.742905
 20
68.313080
 30
0.0
 10
257.979668
 20
68.449897
 30
0.0
 10
258.271463
 20
68.449897
 30
0.0
 10
258.508226
 20
68.313080
 30
0.0
  0
SPLINE
  5
534
100
AcDbEntity
  8
0
 62
7
100
AcDbSpline
 70
8
 71
3
 72
8
 73
4
 74
0
 40
0
 40
0
 40
0
 40
0
 40
1
 40
1
 40
1
 40
1
 10
258.508226
 20
68.313080
 30
0.0
 10
258.744989
 20
68.176264
 30
0.0
 10
258.890692
 20
67.923450
 30
0.0
 10
258.890377
 20
67.649999
 30
0.0
  0
LWPOLYLINE
  5
535
100
AcDbEntity
  8
0
 62
7
100
AcDbPolyline
 90
2
 70
1
 10
249.900725
 20
67.650008
 30
0.0
 10
249.900725
 20
67.650008
 30
0.0
  0
SPLINE
  5
536
100
AcDbEntity
  8
0
 62
1
100
AcDbSpline
 70
8
 71
3
 72
8
 73
4
 74
0
 40
0
 40
0
 40
0
 40
0
 40
1
 40
1
 40
1
 40
1
 10
299.650250
 20
311.567356
 30
0.0
 10
294.379789
 20
311.567356
 30
0.0
 10
288.925873
 20
319.649049
 30
0.0
 10
284.650251
 20
316.567357
 30
0.0
  0
SPLINE
  5
537
100
AcDbEntity
  8
0
 62
1
100
AcDbSpline
 70
8
 71
3
 72
8
 73
4
 74
0
 40
0
 40
0
 40
0
 40
0
 40
1
 40
1
 40
1
 40
1
 10
284.650251
 20
316.567357
 30
0.0
 10
276.537829
 20
310.720255
 30
0.0
 10
284.152115
 20
296.554943
 30
0.0
 10
284.650251
 20
286.567355
 30
0.0
  0
SPLINE
  5
538
100
AcDbEntity
  8
0
 62
1
100
AcDbSpline
 70
8
 71
3
 72
8
 73
4
 74
0
 40
0
 40
0
 40
0
 40
0
 40
1
 40
1
 40
1
 40
1
 10
284.650251
 20
286.567355
 30
0.0
 10
285.309362
 20
273.352260
 30
0.0
 10
288.047256
 20
249.814569
 30
0.0
 10
289.168358
 20
240.509504
 30
0.0
  0
SPLINE
  5
539
100
AcDbEntity
  8
0
 62
1
100
AcDbSpline
 70
8
 71
3
 72
8
 73
4
 74
0
 40
0
 40
0
 40
0
 40
0
 40
1
 40
1
 40
1
 40
1
 10
289.168358
 20
240.509504
 30
0.0
 10
289.466461
 20
238.035285
 30
0.0
 10
290.902052
 20
236.998079
 30
0.0
 10
289.650250
 20
236.567354
 30
0.0
  0
SPLINE
  5
53a
100
AcDbEntity
  8
0
 62
1
100
AcDbSpline
 70
8
 71
3
 72
8
 73
4
 74
0
 40
0
 40
0
 40
0
 40
0
 40
1
 40
1
 40
1
 40
1
 10
289.650250
 20
236.567354
 30
0.0
 10
288.542209
 20
236.186094
 30
0.0
 10
288.882735
 20
238.172329
 30
0.0
 10
287.839382
 20
239.580454
 30
0.0
  0
SPLINE
  5
53b
100
AcDbEntity
  8
0
 62
1
100
AcDbSpline
 70
8
 71
3
 72
8
 73
4
 74
0
 40
0
 40
0
 40
0
 40
0
 40
1
 40
1
 40
1
 40
1
 10
287.839382
 20
239.580454
 30
0.0
 10
286.881966
 20
240.872597
 30
0.0
 10
285.692284
 20
241.998980
 30
0.0
 10
284.650249
 20
241.567355
 30
0.0
  0
SPLINE
  5
53c
100
AcDbEntity
  8
0
 62
1
100
AcDbSpline
 70
8
 71
3
 72
8
 73
4
 74
0
 40
0
 40
0
 40
0
 40
0
 40
1
 40
1
 40
1
 40
1
 10
284.650249
 20
241.567355
 30
0.0
 10
280.030852
 20
239.653939
 30
0.0
 10
280.030849
 20
228.480767
 30
0.0
 10
284.650251
 20
226.567354
 30
0.0
  0
SPLINE
  5
53d
100
AcDbEntity
  8
0
 62
1
100
AcDbSpline
 70
8
 71
3
 72
8
 73
4
 74
0
 40
0
 40
0
 40
0
 40
0
 40
1
 40
1
 40
1
 40
1
 10
284.650251
 20
226.567354
 30
0.0
 10
285.946106
 20
226.030596
 30
0.0
 10
287.470295
 20
227.903284
 30
0.0
 10
288.492171
 20
229.507858
 30
0.0
  0
SPLINE
  5
53e
100
AcDbEntity
  8
0
 62
1
100
AcDbSpline
 70
8
 71
3
 72
8
 73
4
 74
0
 40
0
 40
0
 40
0
 40
0
 40
1
 40
1
 40
1
 40
1
 10
288.492171
 20
229.507858
 30
0.0
 10
289.187496
 20
230.599675
 30
0.0
 10
288.866231
 20
231.642257
 30
0.0
 10
289.650250
 20
231.567355
 30
0.0
  0
SPLINE
  5
53f
100
AcDbEntity
  8
0
 62
1
100
AcDbSpline
 70
8
 71
3
 72
8
 73
4
 74
0
 40
0
 40
0
 40
0
 40
0
 40
1
 40
1
 40
1
 40
1
 10
289.650250
 20
231.567355
 30
0.0
 10
290.368782
 20
231.498708
 30
0.0
 10
290.335011
 20
229.513068
 30
0.0
 10
290.335011
 20
229.513068
 30
0.0
  0
LWPOLYLINE
  5
540
100
AcDbEntity
  8
0
 62
7
100
AcDbPolyline
 90
2
 70
1
 10
258.890377
 20
67.649999
 30
0.0
 10
258.890377
 20
67.649999
 30
0.0
  0
SPLINE
  5
541
100
AcDbEntity
  8
0
 62
1
100
AcDbSpline
 70
8
 71
3
 72
8
 73
4
 74
0
 40
0
 40
0
 40
0
 40
0
 40
1
 40
1
 40
1
 40
1
 10
294.007834
 20
218.494607
 30
0.0
 10
294.668834
 20
217.349722
 30
0.0
 10
294.303897
 20
216.567357
 30
0.0
 10
293.810685
 20
216.567357
 30
0.0
  0
LWPOLYLINE
  5
542
100
AcDbEntity
  8
0
 62
1
100
AcDbPolyline
 90
2
 70
1
 10
290.335011
 20
229.513068
 30
0.0
 10
294.007834
 20
218.494607
 30
0.0
  0
SPLINE
  5
543
100
AcDbEntity
  8
0
 62
1
100
AcDbSpline
 70
8
 71
3
 72
8
 73
4
 74
0
 40
0
 40
0
 40
0
 40
0
 40
1
 40
1
 40
1
 40
1
 10
279.650250
 20
216.567357
 30
0.0
 10
279.650250
 20
216.567357
 30
0.0
 10
277.735643
 20
199.677765
 30
0.0
 10
279.650250
 20
191.567356
 30
0.0
  0
SPLINE
  5
544
100
AcDbEntity
  8
0
 62
1
100
AcDbSpline
 70
8
 71
3
 72
8
 73
4
 74
0
 40
0
 40
0
 40
0
 40
0
 40
1
 40
1
 40
1
 40
1
 10
279.650250
 20
191.567356
 30
0.0
 10
280.506490
 20
187.940273
 30
0.0
 10
280.971595
 20
182.164321
 30
0.0
 10
284.650251
 20
181.567357
 30
0.0
  0
SPLINE
  5
545
100
AcDbEntity
  8
0
 62
1
100
AcDbSpline
 70
8
 71
3
 72
8
 73
4
 74
0
 40
0
 40
0
 40
0
 40
0
 40
1
 40
1
 40
1
 40
1
 10
284.650251
 20
181.567357
 30
0.0
 10
286.003524
 20
181.347751
 30
0.0
 10
287.474139
 20
183.075236
 30
0.0
 10
288.467744
 20
184.559033
 30
0.0
  0
SPLINE
  5
546
100
AcDbEntity
  8
0
 62
1
100
AcDbSpline
 70
8
 71
3
 72
8
 73
4
 74
0
 40
0
 40
0
 40
0
 40
0
 40
1
 40
1
 40
1
 40
1
 10
288.467744
 20
184.559033
 30
0.0
 10
289.182373
 20
185.626223
 30
0.0
 10
288.900721
 20
186.771630
 30
0.0
 10
289.650250
 20
186.567358
 30
0.0
  0
SPLINE
  5
547
100
AcDbEntity
  8
0
 62
1
100
AcDbSpline
 70
8
 71
3
 72
8
 73
4
 74
0
 40
0
 40
0
 40
0
 40
0
 40
1
 40
1
 40
1
 40
1
 10
289.650250
 20
186.567358
 30
0.0
 10
292.866285
 20
185.690877
 30
0.0
 10
291.402689
 20
179.402859
 30
0.0
 10
289.650250
 20
176.567358
 30
0.0
  0
SPLINE
  5
548
100
AcDbEntity
  8
0
 62
1
100
AcDbSpline
 70
8
 71
3
 72
8
 73
4
 74
0
 40
0
 40
0
 40
0
 40
0
 40
1
 40
1
 40
1
 40
1
 10
289.650250
 20
176.567358
 30
0.0
 10
287.690967
 20
173.397167
 30
0.0
 10
281.609536
 20
174.737545
 30
0.0
 10
279.650250
 20
171.567357
 30
0.0
  0
SPLINE
  5
549
100
AcDbEntity
  8
0
 62
1
100
AcDbSpline
 70
8
 71
3
 72
8
 73
4
 74
0
 40
0
 40
0
 40
0
 40
0
 40
1
 40
1
 40
1
 40
1
 10
279.650250
 20
171.567357
 30
0.0
 10
278.774032
 20
170.149605
 30
0.0
 10
279.650250
 20
166.567355
 30
0.0
 10
279.650250
 20
166.567355
 30
0.0
  0
LWPOLYLINE
  5
54a
100
AcDbEntity
  8
0
 62
1
100
AcDbPolyline
 90
3
 70
1
 10
293.810685
 20
216.567357
 30
0.0
 10
291.812447
 20
216.567357
 30
0.0
 10
279.650250
 20
216.567357
 30
0.0
  0
SPLINE
  5
54b
100
AcDbEntity
  8
0
 62
1
100
AcDbSpline
 70
8
 71
3
 72
8
 73
4
 74
0
 40
0
 40
0
 40
0
 40
0
 40
1
 40
1
 40
1
 40
1
 10
319.650252
 20
166.567355
 30
0.0
 10
319.650252
 20
166.567355
 30
0.0
 10
320.526470
 20
170.149605
 30
0.0
 10
319.650252
 20
171.567357
 30
0.0
  0
SPLINE
  5
54c
100
AcDbEntity
  8
0
 62
1
100
AcDbSpline
 70
8
 71
3
 72
8
 73
4
 74
0
 40
0
 40
0
 40
0
 40
0
 40
1
 40
1
 40
1
 40
1
 10
319.650252
 20
171.567357
 30
0.0
 10
317.690967
 20
174.737545
 30
0.0
 10
311.609535
 20
173.397167
 30
0.0
 10
309.650252
 20
176.567358
 30
0.0
  0
SPLINE
  5
54d
100
AcDbEntity
  8
0
 62
1
100
AcDbSpline
 70
8
 71
3
 72
8
 73
4
 74
0
 40
0
 40
0
 40
0
 40
0
 40
1
 40
1
 40
1
 40
1
 10
309.650252
 20
176.567358
 30
0.0
 10
307.897813
 20
179.402859
 30
0.0
 10
306.434051
 20
185.691484
 30
0.0
 10
309.650252
 20
186.567358
 30
0.0
  0
SPLINE
  5
54e
100
AcDbEntity
  8
0
 62
1
100
AcDbSpline
 70
8
 71
3
 72
8
 73
4
 74
0
 40
0
 40
0
 40
0
 40
0
 40
1
 40
1
 40
1
 40
1
 10
309.650252
 20
186.567358
 30
0.0
 10
310.394924
 20
186.770154
 30
0.0
 10
310.114432
 20
185.633662
 30
0.0
 10
310.824283
 20
184.571705
 30
0.0
  0
SPLINE
  5
54f
100
AcDbEntity
  8
0
 62
1
100
AcDbSpline
 70
8
 71
3
 72
8
 73
4
 74
0
 40
0
 40
0
 40
0
 40
0
 40
1
 40
1
 40
1
 40
1
 10
310.824283
 20
184.571705
 30
0.0
 10
311.817987
 20
183.085091
 30
0.0
 10
313.293123
 20
181.347124
 30
0.0
 10
314.650251
 20
181.567357
 30
0.0
  0
SPLINE
  5
550
100
AcDbEntity
  8
0
 62
1
100
AcDbSpline
 70
8
 71
3
 72
8
 73
4
 74
0
 40
0
 40
0
 40
0
 40
0
 40
1
 40
1
 40
1
 40
1
 10
314.650251
 20
181.567357
 30
0.0
 10
318.328907
 20
182.164321
 30
0.0
 10
318.794012
 20
187.940273
 30
0.0
 10
319.650252
 20
191.567356
 30
0.0
  0
SPLINE
  5
551
100
AcDbEntity
  8
0
 62
1
100
AcDbSpline
 70
8
 71
3
 72
8
 73
4
 74
0
 40
0
 40
0
 40
0
 40
0
 40
1
 40
1
 40
1
 40
1
 10
319.650252
 20
191.567356
 30
0.0
 10
321.564859
 20
199.677765
 30
0.0
 10
319.650252
 20
216.567357
 30
0.0
 10
319.650252
 20
216.567357
 30
0.0
  0
LWPOLYLINE
  5
552
100
AcDbEntity
  8
0
 62
1
100
AcDbPolyline
 90
2
 70
1
 10
279.650250
 20
166.567355
 30
0.0
 10
319.650252
 20
166.567355
 30
0.0
  0
SPLINE
  5
553
100
AcDbEntity
  8
0
 62
1
100
AcDbSpline
 70
8
 71
3
 72
8
 73
4
 74
0
 40
0
 40
0
 40
0
 40
0
 40
1
 40
1
 40
1
 40
1
 10
305.743834
 20
216.567357
 30
0.0
 10
305.743834
 20
216.567357
 30
0.0
 10
304.906183
 20
217.335154
 30
0.0
 10
305.309626
 20
218.545484
 30
0.0
  0
LWPOLYLINE
  5
554
100
AcDbEntity
  8
0
 62
1
100
AcDbPolyline
 90
3
 70
1
 10
319.650252
 20
216.567357
 30
0.0
 10
307.798361
 20
216.567357
 30
0.0
 10
305.743834
 20
216.567357
 30
0.0
  0
SPLINE
  5
555
100
AcDbEntity
  8
0
 62
1
100
AcDbSpline
 70
8
 71
3
 72
8
 73
4
 74
0
 40
0
 40
0
 40
0
 40
0
 40
1
 40
1
 40
1
 40
1
 10
308.954304
 20
229.479509
 30
0.0
 10
308.954304
 20
229.479509
 30
0.0
 10
308.919982
 20
231.497584
 30
0.0
 10
309.650252
 20
231.567355
 30
0.0
  0
SPLINE
  5
556
100
AcDbEntity
  8
0
 62
1
100
AcDbSpline
 70
8
 71
3
 72
8
 73
4
 74
0
 40
0
 40
0
 40
0
 40
0
 40
1
 40
1
 40
1
 40
1
 10
309.650252
 20
231.567355
 30
0.0
 10
310.434398
 20
231.642274
 30
0.0
 10
310.113100
 20
230.599483
 30
0.0
 10
310.808537
 20
229.507534
 30
0.0
  0
SPLINE
  5
557
100
AcDbEntity
  8
0
 62
1
100
AcDbSpline
 70
8
 71
3
 72
8
 73
4
 74
0
 40
0
 40
0
 40
0
 40
0
 40
1
 40
1
 40
1
 40
1
 10
310.808537
 20
229.507534
 30
0.0
 10
311.830413
 20
227.903030
 30
0.0
 10
313.354484
 20
226.030632
 30
0.0
 10
314.650251
 20
226.567354
 30
0.0
  0
SPLINE
  5
558
100
AcDbEntity
  8
0
 62
1
100
AcDbSpline
 70
8
 71
3
 72
8
 73
4
 74
0
 40
0
 40
0
 40
0
 40
0
 40
1
 40
1
 40
1
 40
1
 10
314.650251
 20
226.567354
 30
0.0
 10
319.269650
 20
228.480764
 30
0.0
 10
319.269647
 20
239.653939
 30
0.0
 10
314.650251
 20
241.567355
 30
0.0
  0
SPLINE
  5
559
100
AcDbEntity
  8
0
 62
1
100
AcDbSpline
 70
8
 71
3
 72
8
 73
4
 74
0
 40
0
 40
0
 40
0
 40
0
 40
1
 40
1
 40
1
 40
1
 10
314.650251
 20
241.567355
 30
0.0
 10
313.325999
 20
242.115879
 30
0.0
 10
311.763295
 20
240.148195
 30
0.0
 10
310.741882
 20
238.521779
 30
0.0
  0
SPLINE
  5
55a
100
AcDbEntity
  8
0
 62
1
100
AcDbSpline
 70
8
 71
3
 72
8
 73
4
 74
0
 40
0
 40
0
 40
0
 40
0
 40
1
 40
1
 40
1
 40
1
 10
310.741882
 20
238.521779
 30
0.0
 10
310.083681
 20
237.473708
 30
0.0
 10
310.359513
 20
236.335460
 30
0.0
 10
309.650252
 20
236.567354
 30
0.0
  0
SPLINE
  5
55b
100
AcDbEntity
  8
0
 62
1
100
AcDbSpline
 70
8
 71
3
 72
8
 73
4
 74
0
 40
0
 40
0
 40
0
 40
0
 40
1
 40
1
 40
1
 40
1
 10
309.650252
 20
236.567354
 30
0.0
 10
309.027949
 20
236.770816
 30
0.0
 10
309.737961
 20
237.267889
 30
0.0
 10
309.890474
 20
238.516764
 30
0.0
  0
SPLINE
  5
55c
100
AcDbEntity
  8
0
 62
1
100
AcDbSpline
 70
8
 71
3
 72
8
 73
4
 74
0
 40
0
 40
0
 40
0
 40
0
 40
1
 40
1
 40
1
 40
1
 10
309.890474
 20
238.516764
 30
0.0
 10
310.789016
 20
245.874614
 30
0.0
 10
313.936954
 20
272.265812
 30
0.0
 10
314.650251
 20
286.567355
 30
0.0
  0
SPLINE
  5
55d
100
AcDbEntity
  8
0
 62
1
100
AcDbSpline
 70
8
 71
3
 72
8
 73
4
 74
0
 40
0
 40
0
 40
0
 40
0
 40
1
 40
1
 40
1
 40
1
 10
314.650251
 20
286.567355
 30
0.0
 10
315.148387
 20
296.554943
 30
0.0
 10
322.762672
 20
310.720255
 30
0.0
 10
314.650251
 20
316.567357
 30
0.0
  0
SPLINE
  5
55e
100
AcDbEntity
  8
0
 62
1
100
AcDbSpline
 70
8
 71
3
 72
8
 73
4
 74
0
 40
0
 40
0
 40
0
 40
0
 40
1
 40
1
 40
1
 40
1
 10
314.650251
 20
316.567357
 30
0.0
 10
310.374629
 20
319.649049
 30
0.0
 10
304.920713
 20
311.567356
 30
0.0
 10
299.650250
 20
311.567356
 30
0.0
  0
LWPOLYLINE
  5
55f
100
AcDbEntity
  8
0
 62
1
100
AcDbPolyline
 90
2
 70
1
 10
305.309626
 20
218.545484
 30
0.0
 10
308.954304
 20
229.479509
 30
0.0
  0
LWPOLYLINE
  5
560
100
AcDbEntity
  8
0
 62
1
100
AcDbPolyline
 90
2
 70
1
 10
299.650250
 20
311.567356
 30
0.0
 10
299.650250
 20
311.567356
 30
0.0
  0
LWPOLYLINE
  5
561
100
AcDbEntity
  8
0
 62
7
100
AcDbPolyline
 90
2
 70
0
 10
279.650250
 20
206.567338
 30
0.0
 10
319.650252
 20
206.567338
 30
0.0
  0
LWPOLYLINE
  5
562
100
AcDbEntity
  8
0
 62
7
100
AcDbPolyline
 90
2
 70
0
 10
279.650250
 20
196.567358
 30
0.0
 10
319.650252
 20
196.567358
 30
0.0
  0
SPLINE
  5
563
100
AcDbEntity
  8
0
 62
7
100
AcDbSpline
 70
8
 71
3
 72
8
 73
4
 74
0
 40
0
 40
0
 40
0
 40
0
 40
1
 40
1
 40
1
 40
1
 10
297.509967
 20
234.067350
 30
0.0
 10
297.510152
 20
233.581500
 30
0.0
 10
297.060433
 20
233.132510
 30
0.0
 10
296.330258
 20
232.889554
 30
0.0
  0
SPLINE
  5
564
100
AcDbEntity
  8
0
 62
7
100
AcDbSpline
 70
8
 71
3
 72
8
 73
4
 74
0
 40
0
 40
0
 40
0
 40
0
 40
1
 40
1
 40
1
 40
1
 10
296.330258
 20
232.889554
 30
0.0
 10
295.600084
 20
232.646598
 30
0.0
 10
294.700419
 20
232.646598
 30
0.0
 10
293.970245
 20
232.889554
 30
0.0
  0
SPLINE
  5
565
100
AcDbEntity
  8
0
 62
7
100
AcDbSpline
 70
8
 71
3
 72
8
 73
4
 74
0
 40
0
 40
0
 40
0
 40
0
 40
1
 40
1
 40
1
 40
1
 10
293.970245
 20
232.889554
 30
0.0
 10
293.240070
 20
233.132510
 30
0.0
 10
292.790351
 20
233.581500
 30
0.0
 10
292.790536
 20
234.067350
 30
0.0
  0
SPLINE
  5
566
100
AcDbEntity
  8
0
 62
7
100
AcDbSpline
 70
8
 71
3
 72
8
 73
4
 74
0
 40
0
 40
0
 40
0
 40
0
 40
1
 40
1
 40
1
 40
1
 10
292.790536
 20
234.067350
 30
0.0
 10
292.790351
 20
234.553201
 30
0.0
 10
293.240070
 20
235.002191
 30
0.0
 10
293.970245
 20
235.245147
 30
0.0
  0
SPLINE
  5
567
100
AcDbEntity
  8
0
 62
7
100
AcDbSpline
 70
8
 71
3
 72
8
 73
4
 74
0
 40
0
 40
0
 40
0
 40
0
 40
1
 40
1
 40
1
 40
1
 10
293.970245
 20
235.245147
 30
0.0
 10
294.700419
 20
235.488102
 30
0.0
 10
295.600084
 20
235.488102
 30
0.0
 10
296.330258
 20
235.245147
 30
0.0
  0
SPLINE
  5
568
100
AcDbEntity
  8
0
 62
7
100
AcDbSpline
 70
8
 71
3
 72
8
 73
4
 74
0
 40
0
 40
0
 40
0
 40
0
 40
1
 40
1
 40
1
 40
1
 10
296.330258
 20
235.245147
 30
0.0
 10
297.060433
 20
235.002191
 30
0.0
 10
297.510152
 20
234.553201
 30
0.0
 10
297.509967
 20
234.067350
 30
0.0
  0
LWPOLYLINE
  5
569
100
AcDbEntity
  8
0
 62
7
100
AcDbPolyline
 90
2
 70
0
 10
290.781675
 20
186.569723
 30
0.0
 10
308.781674
 20
186.569723
 30
0.0
  0
SPLINE
  5
56a
100
AcDbEntity
  8
0
 62
7
100
AcDbSpline
 70
8
 71
3
 72
8
 73
4
 74
0
 40
0
 40
0
 40
0
 40
0
 40
1
 40
1
 40
1
 40
1
 10
306.503555
 20
234.067328
 30
0.0
 10
306.504025
 20
233.583658
 30
0.0
 10
306.055590
 20
233.136614
 30
0.0
 10
305.327282
 20
232.894701
 30
0.0
  0
SPLINE
  5
56b
100
AcDbEntity
  8
0
 62
7
100
AcDbSpline
 70
8
 71
3
 72
8
 73
4
 74
0
 40
0
 40
0
 40
0
 40
0
 40
1
 40
1
 40
1
 40
1
 10
305.327282
 20
232.894701
 30
0.0
 10
304.598974
 20
232.652789
 30
0.0
 10
303.701527
 20
232.652789
 30
0.0
 10
302.973219
 20
232.894701
 30
0.0
  0
SPLINE
  5
56c
100
AcDbEntity
  8
0
 62
7
100
AcDbSpline
 70
8
 71
3
 72
8
 73
4
 74
0
 40
0
 40
0
 40
0
 40
0
 40
1
 40
1
 40
1
 40
1
 10
302.973219
 20
232.894701
 30
0.0
 10
302.244911
 20
233.136614
 30
0.0
 10
301.796476
 20
233.583658
 30
0.0
 10
301.796946
 20
234.067328
 30
0.0
  0
SPLINE
  5
56d
100
AcDbEntity
  8
0
 62
7
100
AcDbSpline
 70
8
 71
3
 72
8
 73
4
 74
0
 40
0
 40
0
 40
0
 40
0
 40
1
 40
1
 40
1
 40
1
 10
301.796946
 20
234.067328
 30
0.0
 10
301.796476
 20
234.550997
 30
0.0
 10
302.244911
 20
234.998041
 30
0.0
 10
302.973219
 20
235.239954
 30
0.0
  0
SPLINE
  5
56e
100
AcDbEntity
  8
0
 62
7
100
AcDbSpline
 70
8
 71
3
 72
8
 73
4
 74
0
 40
0
 40
0
 40
0
 40
0
 40
1
 40
1
 40
1
 40
1
 10
302.973219
 20
235.239954
 30
0.0
 10
303.701527
 20
235.481867
 30
0.0
 10
304.598974
 20
235.481867
 30
0.0
 10
305.327282
 20
235.239954
 30
0.0
  0
SPLINE
  5
56f
100
AcDbEntity
  8
0
 62
7
100
AcDbSpline
 70
8
 71
3
 72
8
 73
4
 74
0
 40
0
 40
0
 40
0
 40
0
 40
1
 40
1
 40
1
 40
1
 10
305.327282
 20
235.239954
 30
0.0
 10
306.055590
 20
234.998041
 30
0.0
 10
306.504025
 20
234.550997
 30
0.0
 10
306.503555
 20
234.067328
 30
0.0
  0
LWPOLYLINE
  5
570
100
AcDbEntity
  8
0
 62
7
100
AcDbPolyline
 90
2
 70
1
 10
297.509967
 20
234.067350
 30
0.0
 10
297.509967
 20
234.067350
 30
0.0
  0
SPLINE
  5
571
100
AcDbEntity
  8
0
 62
7
100
AcDbSpline
 70
8
 71
3
 72
8
 73
4
 74
0
 40
0
 40
0
 40
0
 40
0
 40
1
 40
1
 40
1
 40
1
 10
294.711948
 20
226.504418
 30
0.0
 10
294.711948
 20
226.504418
 30
0.0
 10
297.695502
 20
223.492261
 30
0.0
 10
299.617278
 20
223.474650
 30
0.0
  0
SPLINE
  5
572
100
AcDbEntity
  8
0
 62
7
100
AcDbSpline
 70
8
 71
3
 72
8
 73
4
 74
0
 40
0
 40
0
 40
0
 40
0
 40
1
 40
1
 40
1
 40
1
 10
299.617278
 20
223.474650
 30
0.0
 10
301.629643
 20
223.456306
 30
0.0
 10
304.811154
 20
226.552509
 30
0.0
 10
304.811154
 20
226.552509
 30
0.0
  0
SPLINE
  5
573
100
AcDbEntity
  8
0
 62
7
100
AcDbSpline
 70
8
 71
3
 72
8
 73
4
 74
0
 40
0
 40
0
 40
0
 40
0
 40
1
 40
1
 40
1
 40
1
 10
304.811154
 20
226.552509
 30
0.0
 10
304.811154
 20
226.552509
 30
0.0
 10
301.407461
 20
225.641157
 30
0.0
 10
299.665368
 20
225.638786
 30
0.0
  0
SPLINE
  5
574
100
AcDbEntity
  8
0
 62
7
100
AcDbSpline
 70
8
 71
3
 72
8
 73
4
 74
0
 40
0
 40
0
 40
0
 40
0
 40
1
 40
1
 40
1
 40
1
 10
299.665368
 20
225.638786
 30
0.0
 10
297.989208
 20
225.635964
 30
0.0
 10
294.711948
 20
226.504418
 30
0.0
 10
294.711948
 20
226.504418
 30
0.0
  0
LWPOLYLINE
  5
575
100
AcDbEntity
  8
0
 62
7
100
AcDbPolyline
 90
2
 70
1
 10
306.503555
 20
234.067328
 30
0.0
 10
306.503555
 20
234.067328
 30
0.0
  0
SPLINE
  5
576
100
AcDbEntity
  8
0
 62
7
100
AcDbSpline
 70
8
 71
3
 72
8
 73
4
 74
0
 40
0
 40
0
 40
0
 40
0
 40
1
 40
1
 40
1
 40
1
 10
298.655064
 20
233.286885
 30
0.0
 10
298.655064
 20
233.286885
 30
0.0
 10
300.332189
 20
231.843151
 30
0.0
 10
300.919245
 20
231.015458
 30
0.0
  0
SPLINE
  5
577
100
AcDbEntity
  8
0
 62
7
100
AcDbSpline
 70
8
 71
3
 72
8
 73
4
 74
0
 40
0
 40
0
 40
0
 40
0
 40
1
 40
1
 40
1
 40
1
 10
300.919245
 20
231.015458
 30
0.0
 10
301.506295
 20
230.187766
 30
0.0
 10
302.138422
 20
228.375721
 30
0.0
 10
302.138422
 20
228.375721
 30
0.0
  0
SPLINE
  5
578
100
AcDbEntity
  8
0
 62
7
100
AcDbSpline
 70
8
 71
3
 72
8
 73
4
 74
0
 40
0
 40
0
 40
0
 40
0
 40
1
 40
1
 40
1
 40
1
 10
302.138422
 20
228.375721
 30
0.0
 10
302.138422
 20
228.375721
 30
0.0
 10
301.123743
 20
228.130896
 30
0.0
 10
300.657995
 20
228.252932
 30
0.0
  0
SPLINE
  5
579
100
AcDbEntity
  8
0
 62
7
100
AcDbSpline
 70
8
 71
3
 72
8
 73
4
 74
0
 40
0
 40
0
 40
0
 40
0
 40
1
 40
1
 40
1
 40
1
 10
300.657995
 20
228.252932
 30
0.0
 10
300.215061
 20
228.369013
 30
0.0
 10
300.172519
 20
228.996232
 30
0.0
 10
299.700073
 20
228.989608
 30
0.0
  0
SPLINE
  5
57a
100
AcDbEntity
  8
0
 62
7
100
AcDbSpline
 70
8
 71
3
 72
8
 73
4
 74
0
 40
0
 40
0
 40
0
 40
0
 40
1
 40
1
 40
1
 40
1
 10
299.700073
 20
228.989608
 30
0.0
 10
299.205840
 20
228.982609
 30
0.0
 10
298.742146
 20
228.191565
 30
0.0
 10
298.742146
 20
228.191565
 30
0.0
  0
SPLINE
  5
57b
100
AcDbEntity
  8
0
 62
7
100
AcDbSpline
 70
8
 71
3
 72
8
 73
4
 74
0
 40
0
 40
0
 40
0
 40
0
 40
1
 40
1
 40
1
 40
1
 10
296.325412
 20
233.967362
 30
0.0
 10
296.325609
 20
233.690292
 30
0.0
 10
296.177908
 20
233.434184
 30
0.0
 10
295.937991
 20
233.295591
 30
0.0
  0
SPLINE
  5
57c
100
AcDbEntity
  8
0
 62
7
100
AcDbSpline
 70
8
 71
3
 72
8
 73
4
 74
0
 40
0
 40
0
 40
0
 40
0
 40
1
 40
1
 40
1
 40
1
 10
295.937991
 20
233.295591
 30
0.0
 10
295.698074
 20
233.156999
 30
0.0
 10
295.402427
 20
233.156999
 30
0.0
 10
295.162511
 20
233.295591
 30
0.0
  0
SPLINE
  5
57d
100
AcDbEntity
  8
0
 62
7
100
AcDbSpline
 70
8
 71
3
 72
8
 73
4
 74
0
 40
0
 40
0
 40
0
 40
0
 40
1
 40
1
 40
1
 40
1
 10
295.162511
 20
233.295591
 30
0.0
 10
294.922594
 20
233.434184
 30
0.0
 10
294.774892
 20
233.690292
 30
0.0
 10
294.775090
 20
233.967362
 30
0.0
  0
SPLINE
  5
57e
100
AcDbEntity
  8
0
 62
7
100
AcDbSpline
 70
8
 71
3
 72
8
 73
4
 74
0
 40
0
 40
0
 40
0
 40
0
 40
1
 40
1
 40
1
 40
1
 10
294.775090
 20
233.967362
 30
0.0
 10
294.774892
 20
234.244432
 30
0.0
 10
294.922594
 20
234.500540
 30
0.0
 10
295.162511
 20
234.639132
 30
0.0
  0
SPLINE
  5
57f
100
AcDbEntity
  8
0
 62
7
100
AcDbSpline
 70
8
 71
3
 72
8
 73
4
 74
0
 40
0
 40
0
 40
0
 40
0
 40
1
 40
1
 40
1
 40
1
 10
295.162511
 20
234.639132
 30
0.0
 10
295.402427
 20
234.777724
 30
0.0
 10
295.698074
 20
234.777724
 30
0.0
 10
295.937991
 20
234.639132
 30
0.0
  0
SPLINE
  5
580
100
AcDbEntity
  8
0
 62
7
100
AcDbSpline
 70
8
 71
3
 72
8
 73
4
 74
0
 40
0
 40
0
 40
0
 40
0
 40
1
 40
1
 40
1
 40
1
 10
295.937991
 20
234.639132
 30
0.0
 10
296.177908
 20
234.500540
 30
0.0
 10
296.325609
 20
234.244432
 30
0.0
 10
296.325412
 20
233.967362
 30
0.0
  0
LWPOLYLINE
  5
581
100
AcDbEntity
  8
0
 62
7
100
AcDbPolyline
 90
2
 70
1
 10
294.711948
 20
226.504418
 30
0.0
 10
294.711948
 20
226.504418
 30
0.0
  0
SPLINE
  5
582
100
AcDbEntity
  8
0
 62
7
100
AcDbSpline
 70
8
 71
3
 72
8
 73
4
 74
0
 40
0
 40
0
 40
0
 40
0
 40
1
 40
1
 40
1
 40
1
 10
305.315064
 20
233.967353
 30
0.0
 10
305.315379
 20
233.693902
 30
0.0
 10
305.169675
 20
233.441088
 30
0.0
 10
304.932912
 20
233.304272
 30
0.0
  0
SPLINE
  5
583
100
AcDbEntity
  8
0
 62
7
100
AcDbSpline
 70
8
 71
3
 72
8
 73
4
 74
0
 40
0
 40
0
 40
0
 40
0
 40
1
 40
1
 40
1
 40
1
 10
304.932912
 20
233.304272
 30
0.0
 10
304.696149
 20
233.167455
 30
0.0
 10
304.404354
 20
233.167455
 30
0.0
 10
304.167591
 20
233.304272
 30
0.0
  0
SPLINE
  5
584
100
AcDbEntity
  8
0
 62
7
100
AcDbSpline
 70
8
 71
3
 72
8
 73
4
 74
0
 40
0
 40
0
 40
0
 40
0
 40
1
 40
1
 40
1
 40
1
 10
304.167591
 20
233.304272
 30
0.0
 10
303.930828
 20
233.441088
 30
0.0
 10
303.785125
 20
233.693902
 30
0.0
 10
303.785440
 20
233.967353
 30
0.0
  0
SPLINE
  5
585
100
AcDbEntity
  8
0
 62
7
100
AcDbSpline
 70
8
 71
3
 72
8
 73
4
 74
0
 40
0
 40
0
 40
0
 40
0
 40
1
 40
1
 40
1
 40
1
 10
303.785440
 20
233.967353
 30
0.0
 10
303.785125
 20
234.240804
 30
0.0
 10
303.930828
 20
234.493618
 30
0.0
 10
304.167591
 20
234.630435
 30
0.0
  0
SPLINE
  5
586
100
AcDbEntity
  8
0
 62
7
100
AcDbSpline
 70
8
 71
3
 72
8
 73
4
 74
0
 40
0
 40
0
 40
0
 40
0
 40
1
 40
1
 40
1
 40
1
 10
304.167591
 20
234.630435
 30
0.0
 10
304.404354
 20
234.767251
 30
0.0
 10
304.696149
 20
234.767251
 30
0.0
 10
304.932912
 20
234.630435
 30
0.0
  0
SPLINE
  5
587
100
AcDbEntity
  8
0
 62
7
100
AcDbSpline
 70
8
 71
3
 72
8
 73
4
 74
0
 40
0
 40
0
 40
0
 40
0
 40
1
 40
1
 40
1
 40
1
 10
304.932912
 20
234.630435
 30
0.0
 10
305.169675
 20
234.493618
 30
0.0
 10
305.315379
 20
234.240804
 30
0.0
 10
305.315064
 20
233.967353
 30
0.0
  0
LWPOLYLINE
  5
588
100
AcDbEntity
  8
0
 62
7
100
AcDbPolyline
 90
2
 70
1
 10
296.325412
 20
233.967362
 30
0.0
 10
296.325412
 20
233.967362
 30
0.0
  0
SPLINE
  5
589
100
AcDbEntity
  8
0
 62
1
100
AcDbSpline
 70
8
 71
3
 72
8
 73
4
 74
0
 40
0
 40
0
 40
0
 40
0
 40
1
 40
1
 40
1
 40
1
 10
299.650250
 20
145.250002
 30
0.0
 10
294.379789
 20
145.250002
 30
0.0
 10
288.925873
 20
153.331695
 30
0.0
 10
284.650251
 20
150.250003
 30
0.0
  0
SPLINE
  5
58a
100
AcDbEntity
  8
0
 62
1
100
AcDbSpline
 70
8
 71
3
 72
8
 73
4
 74
0
 40
0
 40
0
 40
0
 40
0
 40
1
 40
1
 40
1
 40
1
 10
284.650251
 20
150.250003
 30
0.0
 10
276.537829
 20
144.402901
 30
0.0
 10
284.152115
 20
130.237589
 30
0.0
 10
284.650251
 20
120.250001
 30
0.0
  0
SPLINE
  5
58b
100
AcDbEntity
  8
0
 62
1
100
AcDbSpline
 70
8
 71
3
 72
8
 73
4
 74
0
 40
0
 40
0
 40
0
 40
0
 40
1
 40
1
 40
1
 40
1
 10
284.650251
 20
120.250001
 30
0.0
 10
285.309362
 20
107.034906
 30
0.0
 10
288.047256
 20
83.497214
 30
0.0
 10
289.168358
 20
74.192150
 30
0.0
  0
SPLINE
  5
58c
100
AcDbEntity
  8
0
 62
1
100
AcDbSpline
 70
8
 71
3
 72
8
 73
4
 74
0
 40
0
 40
0
 40
0
 40
0
 40
1
 40
1
 40
1
 40
1
 10
289.168358
 20
74.192150
 30
0.0
 10
289.466461
 20
71.717930
 30
0.0
 10
290.902052
 20
70.680724
 30
0.0
 10
289.650250
 20
70.250000
 30
0.0
  0
SPLINE
  5
58d
100
AcDbEntity
  8
0
 62
1
100
AcDbSpline
 70
8
 71
3
 72
8
 73
4
 74
0
 40
0
 40
0
 40
0
 40
0
 40
1
 40
1
 40
1
 40
1
 10
289.650250
 20
70.250000
 30
0.0
 10
288.542209
 20
69.868740
 30
0.0
 10
288.882735
 20
71.854975
 30
0.0
 10
287.839382
 20
73.263100
 30
0.0
  0
SPLINE
  5
58e
100
AcDbEntity
  8
0
 62
1
100
AcDbSpline
 70
8
 71
3
 72
8
 73
4
 74
0
 40
0
 40
0
 40
0
 40
0
 40
1
 40
1
 40
1
 40
1
 10
287.839382
 20
73.263100
 30
0.0
 10
286.881966
 20
74.555243
 30
0.0
 10
285.692284
 20
75.681626
 30
0.0
 10
284.650249
 20
75.250001
 30
0.0
  0
SPLINE
  5
58f
100
AcDbEntity
  8
0
 62
1
100
AcDbSpline
 70
8
 71
3
 72
8
 73
4
 74
0
 40
0
 40
0
 40
0
 40
0
 40
1
 40
1
 40
1
 40
1
 10
284.650249
 20
75.250001
 30
0.0
 10
280.030852
 20
73.336585
 30
0.0
 10
280.030849
 20
62.163413
 30
0.0
 10
284.650251
 20
60.250000
 30
0.0
  0
SPLINE
  5
590
100
AcDbEntity
  8
0
 62
1
100
AcDbSpline
 70
8
 71
3
 72
8
 73
4
 74
0
 40
0
 40
0
 40
0
 40
0
 40
1
 40
1
 40
1
 40
1
 10
284.650251
 20
60.250000
 30
0.0
 10
285.946106
 20
59.713241
 30
0.0
 10
287.470295
 20
61.585930
 30
0.0
 10
288.492171
 20
63.190504
 30
0.0
  0
SPLINE
  5
591
100
AcDbEntity
  8
0
 62
1
100
AcDbSpline
 70
8
 71
3
 72
8
 73
4
 74
0
 40
0
 40
0
 40
0
 40
0
 40
1
 40
1
 40
1
 40
1
 10
288.492171
 20
63.190504
 30
0.0
 10
289.187496
 20
64.282320
 30
0.0
 10
288.866231
 20
65.324903
 30
0.0
 10
289.650250
 20
65.250001
 30
0.0
  0
SPLINE
  5
592
100
AcDbEntity
  8
0
 62
1
100
AcDbSpline
 70
8
 71
3
 72
8
 73
4
 74
0
 40
0
 40
0
 40
0
 40
0
 40
1
 40
1
 40
1
 40
1
 10
289.650250
 20
65.250001
 30
0.0
 10
290.368782
 20
65.181353
 30
0.0
 10
290.335011
 20
63.195714
 30
0.0
 10
290.335011
 20
63.195714
 30
0.0
  0
LWPOLYLINE
  5
593
100
AcDbEntity
  8
0
 62
7
100
AcDbPolyline
 90
2
 70
1
 10
305.315064
 20
233.967353
 30
0.0
 10
305.315064
 20
233.967353
 30
0.0
  0
SPLINE
  5
594
100
AcDbEntity
  8
0
 62
1
100
AcDbSpline
 70
8
 71
3
 72
8
 73
4
 74
0
 40
0
 40
0
 40
0
 40
0
 40
1
 40
1
 40
1
 40
1
 10
294.007834
 20
52.177253
 30
0.0
 10
294.668834
 20
51.032368
 30
0.0
 10
294.303897
 20
50.250003
 30
0.0
 10
293.810685
 20
50.250003
 30
0.0
  0
LWPOLYLINE
  5
595
100
AcDbEntity
  8
0
 62
1
100
AcDbPolyline
 90
2
 70
1
 10
290.335011
 20
63.195714
 30
0.0
 10
294.007834
 20
52.177253
 30
0.0
  0
SPLINE
  5
596
100
AcDbEntity
  8
0
 62
1
100
AcDbSpline
 70
8
 71
3
 72
8
 73
4
 74
0
 40
0
 40
0
 40
0
 40
0
 40
1
 40
1
 40
1
 40
1
 10
279.650250
 20
50.250003
 30
0.0
 10
279.650250
 20
50.250003
 30
0.0
 10
277.735643
 20
33.360411
 30
0.0
 10
279.650250
 20
25.250002
 30
0.0
  0
SPLINE
  5
597
100
AcDbEntity
  8
0
 62
1
100
AcDbSpline
 70
8
 71
3
 72
8
 73
4
 74
0
 40
0
 40
0
 40
0
 40
0
 40
1
 40
1
 40
1
 40
1
 10
279.650250
 20
25.250002
 30
0.0
 10
280.506490
 20
21.622919
 30
0.0
 10
280.971595
 20
15.846967
 30
0.0
 10
284.650251
 20
15.250002
 30
0.0
  0
SPLINE
  5
598
100
AcDbEntity
  8
0
 62
1
100
AcDbSpline
 70
8
 71
3
 72
8
 73
4
 74
0
 40
0
 40
0
 40
0
 40
0
 40
1
 40
1
 40
1
 40
1
 10
284.650251
 20
15.250002
 30
0.0
 10
286.003524
 20
15.030397
 30
0.0
 10
287.474139
 20
16.757882
 30
0.0
 10
288.467744
 20
18.241679
 30
0.0
  0
SPLINE
  5
599
100
AcDbEntity
  8
0
 62
1
100
AcDbSpline
 70
8
 71
3
 72
8
 73
4
 74
0
 40
0
 40
0
 40
0
 40
0
 40
1
 40
1
 40
1
 40
1
 10
288.467744
 20
18.241679
 30
0.0
 10
289.182373
 20
19.308869
 30
0.0
 10
288.900721
 20
20.454276
 30
0.0
 10
289.650250
 20
20.250004
 30
0.0
  0
SPLINE
  5
59a
100
AcDbEntity
  8
0
 62
1
100
AcDbSpline
 70
8
 71
3
 72
8
 73
4
 74
0
 40
0
 40
0
 40
0
 40
0
 40
1
 40
1
 40
1
 40
1
 10
289.650250
 20
20.250004
 30
0.0
 10
292.866285
 20
19.373523
 30
0.0
 10
291.402689
 20
13.085505
 30
0.0
 10
289.650250
 20
10.250004
 30
0.0
  0
SPLINE
  5
59b
100
AcDbEntity
  8
0
 62
1
100
AcDbSpline
 70
8
 71
3
 72
8
 73
4
 74
0
 40
0
 40
0
 40
0
 40
0
 40
1
 40
1
 40
1
 40
1
 10
289.650250
 20
10.250004
 30
0.0
 10
287.690967
 20
7.079813
 30
0.0
 10
281.609536
 20
8.420191
 30
0.0
 10
279.650250
 20
5.250003
 30
0.0
  0
SPLINE
  5
59c
100
AcDbEntity
  8
0
 62
1
100
AcDbSpline
 70
8
 71
3
 72
8
 73
4
 74
0
 40
0
 40
0
 40
0
 40
0
 40
1
 40
1
 40
1
 40
1
 10
279.650250
 20
5.250003
 30
0.0
 10
278.774032
 20
3.832251
 30
0.0
 10
279.650250
 20
0.250001
 30
0.0
 10
279.650250
 20
0.250001
 30
0.0
  0
LWPOLYLINE
  5
59d
100
AcDbEntity
  8
0
 62
1
100
AcDbPolyline
 90
3
 70
1
 10
293.810685
 20
50.250003
 30
0.0
 10
291.812447
 20
50.250003
 30
0.0
 10
279.650250
 20
50.250003
 30
0.0
  0
SPLINE
  5
59e
100
AcDbEntity
  8
0
 62
1
100
AcDbSpline
 70
8
 71
3
 72
8
 73
4
 74
0
 40
0
 40
0
 40
0
 40
0
 40
1
 40
1
 40
1
 40
1
 10
319.650252
 20
0.250001
 30
0.0
 10
319.650252
 20
0.250001
 30
0.0
 10
320.526470
 20
3.832251
 30
0.0
 10
319.650252
 20
5.250003
 30
0.0
  0
SPLINE
  5
59f
100
AcDbEntity
  8
0
 62
1
100
AcDbSpline
 70
8
 71
3
 72
8
 73
4
 74
0
 40
0
 40
0
 40
0
 40
0
 40
1
 40
1
 40
1
 40
1
 10
319.650252
 20
5.250003
 30
0.0
 10
317.690967
 20
8.420191
 30
0.0
 10
311.609535
 20
7.079813
 30
0.0
 10
309.650252
 20
10.250004
 30
0.0
  0
SPLINE
  5
5a0
100
AcDbEntity
  8
0
 62
1
100
AcDbSpline
 70
8
 71
3
 72
8
 73
4
 74
0
 40
0
 40
0
 40
0
 40
0
 40
1
 40
1
 40
1
 40
1
 10
309.650252
 20
10.250004
 30
0.0
 10
307.897813
 20
13.085505
 30
0.0
 10
306.434051
 20
19.374130
 30
0.0
 10
309.650252
 20
20.250004
 30
0.0
  0
SPLINE
  5
5a1
100
AcDbEntity
  8
0
 62
1
100
AcDbSpline
 70
8
 71
3
 72
8
 73
4
 74
0
 40
0
 40
0
 40
0
 40
0
 40
1
 40
1
 40
1
 40
1
 10
309.650252
 20
20.250004
 30
0.0
 10
310.394924
 20
20.452800
 30
0.0
 10
310.114432
 20
19.316308
 30
0.0
 10
310.824283
 20
18.254351
 30
0.0
  0
SPLINE
  5
5a2
100
AcDbEntity
  8
0
 62
1
100
AcDbSpline
 70
8
 71
3
 72
8
 73
4
 74
0
 40
0
 40
0
 40
0
 40
0
 40
1
 40
1
 40
1
 40
1
 10
310.824283
 20
18.254351
 30
0.0
 10
311.817987
 20
16.767737
 30
0.0
 10
313.293123
 20
15.029770
 30
0.0
 10
314.650251
 20
15.250002
 30
0.0
  0
SPLINE
  5
5a3
100
AcDbEntity
  8
0
 62
1
100
AcDbSpline
 70
8
 71
3
 72
8
 73
4
 74
0
 40
0
 40
0
 40
0
 40
0
 40
1
 40
1
 40
1
 40
1
 10
314.650251
 20
15.250002
 30
0.0
 10
318.328907
 20
15.846967
 30
0.0
 10
318.794012
 20
21.622919
 30
0.0
 10
319.650252
 20
25.250002
 30
0.0
  0
SPLINE
  5
5a4
100
AcDbEntity
  8
0
 62
1
100
AcDbSpline
 70
8
 71
3
 72
8
 73
4
 74
0
 40
0
 40
0
 40
0
 40
0
 40
1
 40
1
 40
1
 40
1
 10
319.650252
 20
25.250002
 30
0.0
 10
321.564859
 20
33.360411
 30
0.0
 10
319.650252
 20
50.250003
 30
0.0
 10
319.650252
 20
50.250003
 30
0.0
  0
LWPOLYLINE
  5
5a5
100
AcDbEntity
  8
0
 62
1
100
AcDbPolyline
 90
2
 70
1
 10
279.650250
 20
0.250001
 30
0.0
 10
319.650252
 20
0.250001
 30
0.0
  0
SPLINE
  5
5a6
100
AcDbEntity
  8
0
 62
1
100
AcDbSpline
 70
8
 71
3
 72
8
 73
4
 74
0
 40
0
 40
0
 40
0
 40
0
 40
1
 40
1
 40
1
 40
1
 10
305.743834
 20
50.250003
 30
0.0
 10
305.743834
 20
50.250003
 30
0.0
 10
304.906183
 20
51.017800
 30
0.0
 10
305.309626
 20
52.228129
 30
0.0
  0
LWPOLYLINE
  5
5a7
100
AcDbEntity
  8
0
 62
1
100
AcDbPolyline
 90
3
 70
1
 10
319.650252
 20
50.250003
 30
0.0
 10
307.798361
 20
50.250003
 30
0.0
 10
305.743834
 20
50.250003
 30
0.0
  0
SPLINE
  5
5a8
100
AcDbEntity
  8
0
 62
1
100
AcDbSpline
 70
8
 71
3
 72
8
 73
4
 74
0
 40
0
 40
0
 40
0
 40
0
 40
1
 40
1
 40
1
 40
1
 10
308.954304
 20
63.162155
 30
0.0
 10
308.954304
 20
63.162155
 30
0.0
 10
308.919982
 20
65.180230
 30
0.0
 10
309.650252
 20
65.250001
 30
0.0
  0
SPLINE
  5
5a9
100
AcDbEntity
  8
0
 62
1
100
AcDbSpline
 70
8
 71
3
 72
8
 73
4
 74
0
 40
0
 40
0
 40
0
 40
0
 40
1
 40
1
 40
1
 40
1
 10
309.650252
 20
65.250001
 30
0.0
 10
310.434398
 20
65.324920
 30
0.0
 10
310.113100
 20
64.282128
 30
0.0
 10
310.808537
 20
63.190180
 30
0.0
  0
SPLINE
  5
5aa
100
AcDbEntity
  8
0
 62
1
100
AcDbSpline
 70
8
 71
3
 72
8
 73
4
 74
0
 40
0
 40
0
 40
0
 40
0
 40
1
 40
1
 40
1
 40
1
 10
310.808537
 20
63.190180
 30
0.0
 10
311.830413
 20
61.585676
 30
0.0
 10
313.354484
 20
59.713278
 30
0.0
 10
314.650251
 20
60.250000
 30
0.0
  0
SPLINE
  5
5ab
100
AcDbEntity
  8
0
 62
1
100
AcDbSpline
 70
8
 71
3
 72
8
 73
4
 74
0
 40
0
 40
0
 40
0
 40
0
 40
1
 40
1
 40
1
 40
1
 10
314.650251
 20
60.250000
 30
0.0
 10
319.269650
 20
62.163410
 30
0.0
 10
319.269647
 20
73.336585
 30
0.0
 10
314.650251
 20
75.250001
 30
0.0
  0
SPLINE
  5
5ac
100
AcDbEntity
  8
0
 62
1
100
AcDbSpline
 70
8
 71
3
 72
8
 73
4
 74
0
 40
0
 40
0
 40
0
 40
0
 40
1
 40
1
 40
1
 40
1
 10
314.650251
 20
75.250001
 30
0.0
 10
313.325999
 20
75.798525
 30
0.0
 10
311.763295
 20
73.830841
 30
0.0
 10
310.741882
 20
72.204425
 30
0.0
  0
SPLINE
  5
5ad
100
AcDbEntity
  8
0
 62
1
100
AcDbSpline
 70
8
 71
3
 72
8
 73
4
 74
0
 40
0
 40
0
 40
0
 40
0
 40
1
 40
1
 40
1
 40
1
 10
310.741882
 20
72.204425
 30
0.0
 10
310.083681
 20
71.156353
 30
0.0
 10
310.359513
 20
70.018106
 30
0.0
 10
309.650252
 20
70.250000
 30
0.0
  0
SPLINE
  5
5ae
100
AcDbEntity
  8
0
 62
1
100
AcDbSpline
 70
8
 71
3
 72
8
 73
4
 74
0
 40
0
 40
0
 40
0
 40
0
 40
1
 40
1
 40
1
 40
1
 10
309.650252
 20
70.250000
 30
0.0
 10
309.027949
 20
70.453462
 30
0.0
 10
309.737961
 20
70.950534
 30
0.0
 10
309.890474
 20
72.199410
 30
0.0
  0
SPLINE
  5
5af
100
AcDbEntity
  8
0
 62
1
100
AcDbSpline
 70
8
 71
3
 72
8
 73
4
 74
0
 40
0
 40
0
 40
0
 40
0
 40
1
 40
1
 40
1
 40
1
 10
309.890474
 20
72.199410
 30
0.0
 10
310.789016
 20
79.557259
 30
0.0
 10
313.936954
 20
105.948458
 30
0.0
 10
314.650251
 20
120.250001
 30
0.0
  0
SPLINE
  5
5b0
100
AcDbEntity
  8
0
 62
1
100
AcDbSpline
 70
8
 71
3
 72
8
 73
4
 74
0
 40
0
 40
0
 40
0
 40
0
 40
1
 40
1
 40
1
 40
1
 10
314.650251
 20
120.250001
 30
0.0
 10
315.148387
 20
130.237589
 30
0.0
 10
322.762672
 20
144.402901
 30
0.0
 10
314.650251
 20
150.250003
 30
0.0
  0
SPLINE
  5
5b1
100
AcDbEntity
  8
0
 62
1
100
AcDbSpline
 70
8
 71
3
 72
8
 73
4
 74
0
 40
0
 40
0
 40
0
 40
0
 40
1
 40
1
 40
1
 40
1
 10
314.650251
 20
150.250003
 30
0.0
 10
310.374629
 20
153.331695
 30
0.0
 10
304.920713
 20
145.250002
 30
0.0
 10
299.650250
 20
145.250002
 30
0.0
  0
LWPOLYLINE
  5
5b2
100
AcDbEntity
  8
0
 62
1
100
AcDbPolyline
 90
2
 70
1
 10
305.309626
 20
52.228129
 30
0.0
 10
308.954304
 20
63.162155
 30
0.0
  0
LWPOLYLINE
  5
5b3
100
AcDbEntity
  8
0
 62
1
100
AcDbPolyline
 90
2
 70
1
 10
299.650250
 20
145.250002
 30
0.0
 10
299.650250
 20
145.250002
 30
0.0
  0
LWPOLYLINE
  5
5b4
100
AcDbEntity
  8
0
 62
7
100
AcDbPolyline
 90
2
 70
0
 10
279.650250
 20
40.249983
 30
0.0
 10
319.650252
 20
40.249983
 30
0.0
  0
LWPOLYLINE
  5
5b5
100
AcDbEntity
  8
0
 62
7
100
AcDbPolyline
 90
2
 70
0
 10
279.650250
 20
30.250003
 30
0.0
 10
319.650252
 20
30.250003
 30
0.0
  0
SPLINE
  5
5b6
100
AcDbEntity
  8
0
 62
7
100
AcDbSpline
 70
8
 71
3
 72
8
 73
4
 74
0
 40
0
 40
0
 40
0
 40
0
 40
1
 40
1
 40
1
 40
1
 10
297.509967
 20
67.749996
 30
0.0
 10
297.510152
 20
67.264146
 30
0.0
 10
297.060433
 20
66.815156
 30
0.0
 10
296.330258
 20
66.572200
 30
0.0
  0
SPLINE
  5
5b7
100
AcDbEntity
  8
0
 62
7
100
AcDbSpline
 70
8
 71
3
 72
8
 73
4
 74
0
 40
0
 40
0
 40
0
 40
0
 40
1
 40
1
 40
1
 40
1
 10
296.330258
 20
66.572200
 30
0.0
 10
295.600084
 20
66.329244
 30
0.0
 10
294.700419
 20
66.329244
 30
0.0
 10
293.970245
 20
66.572200
 30
0.0
  0
SPLINE
  5
5b8
100
AcDbEntity
  8
0
 62
7
100
AcDbSpline
 70
8
 71
3
 72
8
 73
4
 74
0
 40
0
 40
0
 40
0
 40
0
 40
1
 40
1
 40
1
 40
1
 10
293.970245
 20
66.572200
 30
0.0
 10
293.240070
 20
66.815156
 30
0.0
 10
292.790351
 20
67.264146
 30
0.0
 10
292.790536
 20
67.749996
 30
0.0
  0
SPLINE
  5
5b9
100
AcDbEntity
  8
0
 62
7
100
AcDbSpline
 70
8
 71
3
 72
8
 73
4
 74
0
 40
0
 40
0
 40
0
 40
0
 40
1
 40
1
 40
1
 40
1
 10
292.790536
 20
67.749996
 30
0.0
 10
292.790351
 20
68.235847
 30
0.0
 10
293.240070
 20
68.684836
 30
0.0
 10
293.970245
 20
68.927792
 30
0.0
  0
SPLINE
  5
5ba
100
AcDbEntity
  8
0
 62
7
100
AcDbSpline
 70
8
 71
3
 72
8
 73
4
 74
0
 40
0
 40
0
 40
0
 40
0
 40
1
 40
1
 40
1
 40
1
 10
293.970245
 20
68.927792
 30
0.0
 10
294.700419
 20
69.170748
 30
0.0
 10
295.600084
 20
69.170748
 30
0.0
 10
296.330258
 20
68.927792
 30
0.0
  0
SPLINE
  5
5bb
100
AcDbEntity
  8
0
 62
7
100
AcDbSpline
 70
8
 71
3
 72
8
 73
4
 74
0
 40
0
 40
0
 40
0
 40
0
 40
1
 40
1
 40
1
 40
1
 10
296.330258
 20
68.927792
 30
0.0
 10
297.060433
 20
68.684836
 30
0.0
 10
297.510152
 20
68.235847
 30
0.0
 10
297.509967
 20
67.749996
 30
0.0
  0
LWPOLYLINE
  5
5bc
100
AcDbEntity
  8
0
 62
7
100
AcDbPolyline
 90
2
 70
0
 10
290.781675
 20
20.252369
 30
0.0
 10
308.781674
 20
20.252369
 30
0.0
  0
SPLINE
  5
5bd
100
AcDbEntity
  8
0
 62
7
100
AcDbSpline
 70
8
 71
3
 72
8
 73
4
 74
0
 40
0
 40
0
 40
0
 40
0
 40
1
 40
1
 40
1
 40
1
 10
306.503555
 20
67.749973
 30
0.0
 10
306.504025
 20
67.266304
 30
0.0
 10
306.055590
 20
66.819260
 30
0.0
 10
305.327282
 20
66.577347
 30
0.0
  0
SPLINE
  5
5be
100
AcDbEntity
  8
0
 62
7
100
AcDbSpline
 70
8
 71
3
 72
8
 73
4
 74
0
 40
0
 40
0
 40
0
 40
0
 40
1
 40
1
 40
1
 40
1
 10
305.327282
 20
66.577347
 30
0.0
 10
304.598974
 20
66.335435
 30
0.0
 10
303.701527
 20
66.335435
 30
0.0
 10
302.973219
 20
66.577347
 30
0.0
  0
SPLINE
  5
5bf
100
AcDbEntity
  8
0
 62
7
100
AcDbSpline
 70
8
 71
3
 72
8
 73
4
 74
0
 40
0
 40
0
 40
0
 40
0
 40
1
 40
1
 40
1
 40
1
 10
302.973219
 20
66.577347
 30
0.0
 10
302.244911
 20
66.819260
 30
0.0
 10
301.796476
 20
67.266304
 30
0.0
 10
301.796946
 20
67.749973
 30
0.0
  0
SPLINE
  5
5c0
100
AcDbEntity
  8
0
 62
7
100
AcDbSpline
 70
8
 71
3
 72
8
 73
4
 74
0
 40
0
 40
0
 40
0
 40
0
 40
1
 40
1
 40
1
 40
1
 10
301.796946
 20
67.749973
 30
0.0
 10
301.796476
 20
68.233643
 30
0.0
 10
302.244911
 20
68.680687
 30
0.0
 10
302.973219
 20
68.922600
 30
0.0
  0
SPLINE
  5
5c1
100
AcDbEntity
  8
0
 62
7
100
AcDbSpline
 70
8
 71
3
 72
8
 73
4
 74
0
 40
0
 40
0
 40
0
 40
0
 40
1
 40
1
 40
1
 40
1
 10
302.973219
 20
68.922600
 30
0.0
 10
303.701527
 20
69.164512
 30
0.0
 10
304.598974
 20
69.164512
 30
0.0
 10
305.327282
 20
68.922600
 30
0.0
  0
SPLINE
  5
5c2
100
AcDbEntity
  8
0
 62
7
100
AcDbSpline
 70
8
 71
3
 72
8
 73
4
 74
0
 40
0
 40
0
 40
0
 40
0
 40
1
 40
1
 40
1
 40
1
 10
305.327282
 20
68.922600
 30
0.0
 10
306.055590
 20
68.680687
 30
0.0
 10
306.504025
 20
68.233643
 30
0.0
 10
306.503555
 20
67.749973
 30
0.0
  0
LWPOLYLINE
  5
5c3
100
AcDbEntity
  8
0
 62
7
100
AcDbPolyline
 90
2
 70
1
 10
297.509967
 20
67.749996
 30
0.0
 10
297.509967
 20
67.749996
 30
0.0
  0
SPLINE
  5
5c4
100
AcDbEntity
  8
0
 62
7
100
AcDbSpline
 70
8
 71
3
 72
8
 73
4
 74
0
 40
0
 40
0
 40
0
 40
0
 40
1
 40
1
 40
1
 40
1
 10
294.711948
 20
60.187064
 30
0.0
 10
294.711948
 20
60.187064
 30
0.0
 10
297.695502
 20
57.174906
 30
0.0
 10
299.617278
 20
57.157296
 30
0.0
  0
SPLINE
  5
5c5
100
AcDbEntity
  8
0
 62
7
100
AcDbSpline
 70
8
 71
3
 72
8
 73
4
 74
0
 40
0
 40
0
 40
0
 40
0
 40
1
 40
1
 40
1
 40
1
 10
299.617278
 20
57.157296
 30
0.0
 10
301.629643
 20
57.138951
 30
0.0
 10
304.811154
 20
60.235155
 30
0.0
 10
304.811154
 20
60.235155
 30
0.0
  0
SPLINE
  5
5c6
100
AcDbEntity
  8
0
 62
7
100
AcDbSpline
 70
8
 71
3
 72
8
 73
4
 74
0
 40
0
 40
0
 40
0
 40
0
 40
1
 40
1
 40
1
 40
1
 10
304.811154
 20
60.235155
 30
0.0
 10
304.811154
 20
60.235155
 30
0.0
 10
301.407461
 20
59.323803
 30
0.0
 10
299.665368
 20
59.321432
 30
0.0
  0
SPLINE
  5
5c7
100
AcDbEntity
  8
0
 62
7
100
AcDbSpline
 70
8
 71
3
 72
8
 73
4
 74
0
 40
0
 40
0
 40
0
 40
0
 40
1
 40
1
 40
1
 40
1
 10
299.665368
 20
59.321432
 30
0.0
 10
297.989208
 20
59.318610
 30
0.0
 10
294.711948
 20
60.187064
 30
0.0
 10
294.711948
 20
60.187064
 30
0.0
  0
LWPOLYLINE
  5
5c8
100
AcDbEntity
  8
0
 62
7
100
AcDbPolyline
 90
2
 70
1
 10
306.503555
 20
67.749973
 30
0.0
 10
306.503555
 20
67.749973
 30
0.0
  0
SPLINE
  5
5c9
100
AcDbEntity
  8
0
 62
7
100
AcDbSpline
 70
8
 71
3
 72
8
 73
4
 74
0
 40
0
 40
0
 40
0
 40
0
 40
1
 40
1
 40
1
 40
1
 10
298.655064
 20
66.969530
 30
0.0
 10
298.655064
 20
66.969530
 30
0.0
 10
300.332189
 20
65.525797
 30
0.0
 10
300.919245
 20
64.698104
 30
0.0
  0
SPLINE
  5
5ca
100
AcDbEntity
  8
0
 62
7
100
AcDbSpline
 70
8
 71
3
 72
8
 73
4
 74
0
 40
0
 40
0
 40
0
 40
0
 40
1
 40
1
 40
1
 40
1
 10
300.919245
 20
64.698104
 30
0.0
 10
301.506295
 20
63.870411
 30
0.0
 10
302.138422
 20
62.058367
 30
0.0
 10
302.138422
 20
62.058367
 30
0.0
  0
SPLINE
  5
5cb
100
AcDbEntity
  8
0
 62
7
100
AcDbSpline
 70
8
 71
3
 72
8
 73
4
 74
0
 40
0
 40
0
 40
0
 40
0
 40
1
 40
1
 40
1
 40
1
 10
302.138422
 20
62.058367
 30
0.0
 10
302.138422
 20
62.058367
 30
0.0
 10
301.123743
 20
61.813542
 30
0.0
 10
300.657995
 20
61.935578
 30
0.0
  0
SPLINE
  5
5cc
100
AcDbEntity
  8
0
 62
7
100
AcDbSpline
 70
8
 71
3
 72
8
 73
4
 74
0
 40
0
 40
0
 40
0
 40
0
 40
1
 40
1
 40
1
 40
1
 10
300.657995
 20
61.935578
 30
0.0
 10
300.215061
 20
62.051658
 30
0.0
 10
300.172519
 20
62.678878
 30
0.0
 10
299.700073
 20
62.672254
 30
0.0
  0
SPLINE
  5
5cd
100
AcDbEntity
  8
0
 62
7
100
AcDbSpline
 70
8
 71
3
 72
8
 73
4
 74
0
 40
0
 40
0
 40
0
 40
0
 40
1
 40
1
 40
1
 40
1
 10
299.700073
 20
62.672254
 30
0.0
 10
299.205840
 20
62.665255
 30
0.0
 10
298.742146
 20
61.874211
 30
0.0
 10
298.742146
 20
61.874211
 30
0.0
  0
SPLINE
  5
5ce
100
AcDbEntity
  8
0
 62
7
100
AcDbSpline
 70
8
 71
3
 72
8
 73
4
 74
0
 40
0
 40
0
 40
0
 40
0
 40
1
 40
1
 40
1
 40
1
 10
296.325412
 20
67.650008
 30
0.0
 10
296.325609
 20
67.372937
 30
0.0
 10
296.177908
 20
67.116829
 30
0.0
 10
295.937991
 20
66.978237
 30
0.0
  0
SPLINE
  5
5cf
100
AcDbEntity
  8
0
 62
7
100
AcDbSpline
 70
8
 71
3
 72
8
 73
4
 74
0
 40
0
 40
0
 40
0
 40
0
 40
1
 40
1
 40
1
 40
1
 10
295.937991
 20
66.978237
 30
0.0
 10
295.698074
 20
66.839645
 30
0.0
 10
295.402427
 20
66.839645
 30
0.0
 10
295.162511
 20
66.978237
 30
0.0
  0
SPLINE
  5
5d0
100
AcDbEntity
  8
0
 62
7
100
AcDbSpline
 70
8
 71
3
 72
8
 73
4
 74
0
 40
0
 40
0
 40
0
 40
0
 40
1
 40
1
 40
1
 40
1
 10
295.162511
 20
66.978237
 30
0.0
 10
294.922594
 20
67.116829
 30
0.0
 10
294.774892
 20
67.372937
 30
0.0
 10
294.775090
 20
67.650008
 30
0.0
  0
SPLINE
  5
5d1
100
AcDbEntity
  8
0
 62
7
100
AcDbSpline
 70
8
 71
3
 72
8
 73
4
 74
0
 40
0
 40
0
 40
0
 40
0
 40
1
 40
1
 40
1
 40
1
 10
294.775090
 20
67.650008
 30
0.0
 10
294.774892
 20
67.927078
 30
0.0
 10
294.922594
 20
68.183186
 30
0.0
 10
295.162511
 20
68.321778
 30
0.0
  0
SPLINE
  5
5d2
100
AcDbEntity
  8
0
 62
7
100
AcDbSpline
 70
8
 71
3
 72
8
 73
4
 74
0
 40
0
 40
0
 40
0
 40
0
 40
1
 40
1
 40
1
 40
1
 10
295.162511
 20
68.321778
 30
0.0
 10
295.402427
 20
68.460370
 30
0.0
 10
295.698074
 20
68.460370
 30
0.0
 10
295.937991
 20
68.321778
 30
0.0
  0
SPLINE
  5
5d3
100
AcDbEntity
  8
0
 62
7
100
AcDbSpline
 70
8
 71
3
 72
8
 73
4
 74
0
 40
0
 40
0
 40
0
 40
0
 40
1
 40
1
 40
1
 40
1
 10
295.937991
 20
68.321778
 30
0.0
 10
296.177908
 20
68.183186
 30
0.0
 10
296.325609
 20
67.927078
 30
0.0
 10
296.325412
 20
67.650008
 30
0.0
  0
LWPOLYLINE
  5
5d4
100
AcDbEntity
  8
0
 62
7
100
AcDbPolyline
 90
2
 70
1
 10
294.711948
 20
60.187064
 30
0.0
 10
294.711948
 20
60.187064
 30
0.0
  0
SPLINE
  5
5d5
100
AcDbEntity
  8
0
 62
7
100
AcDbSpline
 70
8
 71
3
 72
8
 73
4
 74
0
 40
0
 40
0
 40
0
 40
0
 40
1
 40
1
 40
1
 40
1
 10
305.315064
 20
67.649999
 30
0.0
 10
305.315379
 20
67.376548
 30
0.0
 10
305.169675
 20
67.123734
 30
0.0
 10
304.932912
 20
66.986918
 30
0.0
  0
SPLINE
  5
5d6
100
AcDbEntity
  8
0
 62
7
100
AcDbSpline
 70
8
 71
3
 72
8
 73
4
 74
0
 40
0
 40
0
 40
0
 40
0
 40
1
 40
1
 40
1
 40
1
 10
304.932912
 20
66.986918
 30
0.0
 10
304.696149
 20
66.850101
 30
0.0
 10
304.404354
 20
66.850101
 30
0.0
 10
304.167591
 20
66.986918
 30
0.0
  0
SPLINE
  5
5d7
100
AcDbEntity
  8
0
 62
7
100
AcDbSpline
 70
8
 71
3
 72
8
 73
4
 74
0
 40
0
 40
0
 40
0
 40
0
 40
1
 40
1
 40
1
 40
1
 10
304.167591
 20
66.986918
 30
0.0
 10
303.930828
 20
67.123734
 30
0.0
 10
303.785125
 20
67.376548
 30
0.0
 10
303.785440
 20
67.649999
 30
0.0
  0
SPLINE
  5
5d8
100
AcDbEntity
  8
0
 62
7
100
AcDbSpline
 70
8
 71
3
 72
8
 73
4
 74
0
 40
0
 40
0
 40
0
 40
0
 40
1
 40
1
 40
1
 40
1
 10
303.785440
 20
67.649999
 30
0.0
 10
303.785125
 20
67.923450
 30
0.0
 10
303.930828
 20
68.176264
 30
0.0
 10
304.167591
 20
68.313080
 30
0.0
  0
SPLINE
  5
5d9
100
AcDbEntity
  8
0
 62
7
100
AcDbSpline
 70
8
 71
3
 72
8
 73
4
 74
0
 40
0
 40
0
 40
0
 40
0
 40
1
 40
1
 40
1
 40
1
 10
304.167591
 20
68.313080
 30
0.0
 10
304.404354
 20
68.449897
 30
0.0
 10
304.696149
 20
68.449897
 30
0.0
 10
304.932912
 20
68.313080
 30
0.0
  0
SPLINE
  5
5da
100
AcDbEntity
  8
0
 62
7
100
AcDbSpline
 70
8
 71
3
 72
8
 73
4
 74
0
 40
0
 40
0
 40
0
 40
0
 40
1
 40
1
 40
1
 40
1
 10
304.932912
 20
68.313080
 30
0.0
 10
305.169675
 20
68.176264
 30
0.0
 10
305.315379
 20
67.923450
 30
0.0
 10
305.315064
 20
67.649999
 30
0.0
  0
LWPOLYLINE
  5
5db
100
AcDbEntity
  8
0
 62
7
100
AcDbPolyline
 90
2
 70
1
 10
296.325412
 20
67.650008
 30
0.0
 10
296.325412
 20
67.650008
 30
0.0
  0
SPLINE
  5
5dc
100
AcDbEntity
  8
0
 62
1
100
AcDbSpline
 70
8
 71
3
 72
8
 73
4
 74
0
 40
0
 40
0
 40
0
 40
0
 40
1
 40
1
 40
1
 40
1
 10
346.074950
 20
311.567356
 30
0.0
 10
340.804490
 20
311.567356
 30
0.0
 10
335.350573
 20
319.649049
 30
0.0
 10
331.074952
 20
316.567357
 30
0.0
  0
SPLINE
  5
5dd
100
AcDbEntity
  8
0
 62
1
100
AcDbSpline
 70
8
 71
3
 72
8
 73
4
 74
0
 40
0
 40
0
 40
0
 40
0
 40
1
 40
1
 40
1
 40
1
 10
331.074952
 20
316.567357
 30
0.0
 10
322.962529
 20
310.720255
 30
0.0
 10
330.576816
 20
296.554943
 30
0.0
 10
331.074952
 20
286.567355
 30
0.0
  0
SPLINE
  5
5de
100
AcDbEntity
  8
0
 62
1
100
AcDbSpline
 70
8
 71
3
 72
8
 73
4
 74
0
 40
0
 40
0
 40
0
 40
0
 40
1
 40
1
 40
1
 40
1
 10
331.074952
 20
286.567355
 30
0.0
 10
331.734062
 20
273.352260
 30
0.0
 10
334.471956
 20
249.814569
 30
0.0
 10
335.593059
 20
240.509504
 30
0.0
  0
SPLINE
  5
5df
100
AcDbEntity
  8
0
 62
1
100
AcDbSpline
 70
8
 71
3
 72
8
 73
4
 74
0
 40
0
 40
0
 40
0
 40
0
 40
1
 40
1
 40
1
 40
1
 10
335.593059
 20
240.509504
 30
0.0
 10
335.891162
 20
238.035285
 30
0.0
 10
337.326753
 20
236.998079
 30
0.0
 10
336.074950
 20
236.567354
 30
0.0
  0
SPLINE
  5
5e0
100
AcDbEntity
  8
0
 62
1
100
AcDbSpline
 70
8
 71
3
 72
8
 73
4
 74
0
 40
0
 40
0
 40
0
 40
0
 40
1
 40
1
 40
1
 40
1
 10
336.074950
 20
236.567354
 30
0.0
 10
334.966909
 20
236.186094
 30
0.0
 10
335.307436
 20
238.172329
 30
0.0
 10
334.264083
 20
239.580454
 30
0.0
  0
SPLINE
  5
5e1
100
AcDbEntity
  8
0
 62
1
100
AcDbSpline
 70
8
 71
3
 72
8
 73
4
 74
0
 40
0
 40
0
 40
0
 40
0
 40
1
 40
1
 40
1
 40
1
 10
334.264083
 20
239.580454
 30
0.0
 10
333.306666
 20
240.872597
 30
0.0
 10
332.116984
 20
241.998980
 30
0.0
 10
331.074949
 20
241.567355
 30
0.0
  0
SPLINE
  5
5e2
100
AcDbEntity
  8
0
 62
1
100
AcDbSpline
 70
8
 71
3
 72
8
 73
4
 74
0
 40
0
 40
0
 40
0
 40
0
 40
1
 40
1
 40
1
 40
1
 10
331.074949
 20
241.567355
 30
0.0
 10
326.455553
 20
239.653939
 30
0.0
 10
326.455550
 20
228.480767
 30
0.0
 10
331.074952
 20
226.567354
 30
0.0
  0
SPLINE
  5
5e3
100
AcDbEntity
  8
0
 62
1
100
AcDbSpline
 70
8
 71
3
 72
8
 73
4
 74
0
 40
0
 40
0
 40
0
 40
0
 40
1
 40
1
 40
1
 40
1
 10
331.074952
 20
226.567354
 30
0.0
 10
332.370806
 20
226.030596
 30
0.0
 10
333.894995
 20
227.903284
 30
0.0
 10
334.916871
 20
229.507858
 30
0.0
  0
SPLINE
  5
5e4
100
AcDbEntity
  8
0
 62
1
100
AcDbSpline
 70
8
 71
3
 72
8
 73
4
 74
0
 40
0
 40
0
 40
0
 40
0
 40
1
 40
1
 40
1
 40
1
 10
334.916871
 20
229.507858
 30
0.0
 10
335.612196
 20
230.599675
 30
0.0
 10
335.290931
 20
231.642257
 30
0.0
 10
336.074950
 20
231.567355
 30
0.0
  0
SPLINE
  5
5e5
100
AcDbEntity
  8
0
 62
1
100
AcDbSpline
 70
8
 71
3
 72
8
 73
4
 74
0
 40
0
 40
0
 40
0
 40
0
 40
1
 40
1
 40
1
 40
1
 10
336.074950
 20
231.567355
 30
0.0
 10
336.793482
 20
231.498708
 30
0.0
 10
336.759712
 20
229.513068
 30
0.0
 10
336.759712
 20
229.513068
 30
0.0
  0
LWPOLYLINE
  5
5e6
100
AcDbEntity
  8
0
 62
7
100
AcDbPolyline
 90
2
 70
1
 10
305.315064
 20
67.649999
 30
0.0
 10
305.315064
 20
67.649999
 30
0.0
  0
SPLINE
  5
5e7
100
AcDbEntity
  8
0
 62
1
100
AcDbSpline
 70
8
 71
3
 72
8
 73
4
 74
0
 40
0
 40
0
 40
0
 40
0
 40
1
 40
1
 40
1
 40
1
 10
340.432535
 20
218.494607
 30
0.0
 10
341.093535
 20
217.349722
 30
0.0
 10
340.728597
 20
216.567357
 30
0.0
 10
340.235386
 20
216.567357
 30
0.0
  0
LWPOLYLINE
  5
5e8
100
AcDbEntity
  8
0
 62
1
100
AcDbPolyline
 90
2
 70
1
 10
336.759712
 20
229.513068
 30
0.0
 10
340.432535
 20
218.494607
 30
0.0
  0
SPLINE
  5
5e9
100
AcDbEntity
  8
0
 62
1
100
AcDbSpline
 70
8
 71
3
 72
8
 73
4
 74
0
 40
0
 40
0
 40
0
 40
0
 40
1
 40
1
 40
1
 40
1
 10
326.074951
 20
216.567357
 30
0.0
 10
326.074951
 20
216.567357
 30
0.0
 10
324.160344
 20
199.677765
 30
0.0
 10
326.074951
 20
191.567356
 30
0.0
  0
SPLINE
  5
5ea
100
AcDbEntity
  8
0
 62
1
100
AcDbSpline
 70
8
 71
3
 72
8
 73
4
 74
0
 40
0
 40
0
 40
0
 40
0
 40
1
 40
1
 40
1
 40
1
 10
326.074951
 20
191.567356
 30
0.0
 10
326.931190
 20
187.940273
 30
0.0
 10
327.396295
 20
182.164321
 30
0.0
 10
331.074952
 20
181.567357
 30
0.0
  0
SPLINE
  5
5eb
100
AcDbEntity
  8
0
 62
1
100
AcDbSpline
 70
8
 71
3
 72
8
 73
4
 74
0
 40
0
 40
0
 40
0
 40
0
 40
1
 40
1
 40
1
 40
1
 10
331.074952
 20
181.567357
 30
0.0
 10
332.428224
 20
181.347751
 30
0.0
 10
333.898839
 20
183.075236
 30
0.0
 10
334.892445
 20
184.559033
 30
0.0
  0
SPLINE
  5
5ec
100
AcDbEntity
  8
0
 62
1
100
AcDbSpline
 70
8
 71
3
 72
8
 73
4
 74
0
 40
0
 40
0
 40
0
 40
0
 40
1
 40
1
 40
1
 40
1
 10
334.892445
 20
184.559033
 30
0.0
 10
335.607074
 20
185.626223
 30
0.0
 10
335.325422
 20
186.771630
 30
0.0
 10
336.074950
 20
186.567358
 30
0.0
  0
SPLINE
  5
5ed
100
AcDbEntity
  8
0
 62
1
100
AcDbSpline
 70
8
 71
3
 72
8
 73
4
 74
0
 40
0
 40
0
 40
0
 40
0
 40
1
 40
1
 40
1
 40
1
 10
336.074950
 20
186.567358
 30
0.0
 10
339.290985
 20
185.690877
 30
0.0
 10
337.827389
 20
179.402859
 30
0.0
 10
336.074950
 20
176.567358
 30
0.0
  0
SPLINE
  5
5ee
100
AcDbEntity
  8
0
 62
1
100
AcDbSpline
 70
8
 71
3
 72
8
 73
4
 74
0
 40
0
 40
0
 40
0
 40
0
 40
1
 40
1
 40
1
 40
1
 10
336.074950
 20
176.567358
 30
0.0
 10
334.115668
 20
173.397167
 30
0.0
 10
328.034236
 20
174.737545
 30
0.0
 10
326.074951
 20
171.567357
 30
0.0
  0
SPLINE
  5
5ef
100
AcDbEntity
  8
0
 62
1
100
AcDbSpline
 70
8
 71
3
 72
8
 73
4
 74
0
 40
0
 40
0
 40
0
 40
0
 40
1
 40
1
 40
1
 40
1
 10
326.074951
 20
171.567357
 30
0.0
 10
325.198732
 20
170.149605
 30
0.0
 10
326.074951
 20
166.567355
 30
0.0
 10
326.074951
 20
166.567355
 30
0.0
  0
LWPOLYLINE
  5
5f0
100
AcDbEntity
  8
0
 62
1
100
AcDbPolyline
 90
3
 70
1
 10
340.235386
 20
216.567357
 30
0.0
 10
338.237148
 20
216.567357
 30
0.0
 10
326.074951
 20
216.567357
 30
0.0
  0
SPLINE
  5
5f1
100
AcDbEntity
  8
0
 62
1
100
AcDbSpline
 70
8
 71
3
 72
8
 73
4
 74
0
 40
0
 40
0
 40
0
 40
0
 40
1
 40
1
 40
1
 40
1
 10
366.074952
 20
166.567355
 30
0.0
 10
366.074952
 20
166.567355
 30
0.0
 10
366.951171
 20
170.149605
 30
0.0
 10
366.074952
 20
171.567357
 30
0.0
  0
SPLINE
  5
5f2
100
AcDbEntity
  8
0
 62
1
100
AcDbSpline
 70
8
 71
3
 72
8
 73
4
 74
0
 40
0
 40
0
 40
0
 40
0
 40
1
 40
1
 40
1
 40
1
 10
366.074952
 20
171.567357
 30
0.0
 10
364.115667
 20
174.737545
 30
0.0
 10
358.034235
 20
173.397167
 30
0.0
 10
356.074953
 20
176.567358
 30
0.0
  0
SPLINE
  5
5f3
100
AcDbEntity
  8
0
 62
1
100
AcDbSpline
 70
8
 71
3
 72
8
 73
4
 74
0
 40
0
 40
0
 40
0
 40
0
 40
1
 40
1
 40
1
 40
1
 10
356.074953
 20
176.567358
 30
0.0
 10
354.322514
 20
179.402859
 30
0.0
 10
352.858751
 20
185.691484
 30
0.0
 10
356.074953
 20
186.567358
 30
0.0
  0
SPLINE
  5
5f4
100
AcDbEntity
  8
0
 62
1
100
AcDbSpline
 70
8
 71
3
 72
8
 73
4
 74
0
 40
0
 40
0
 40
0
 40
0
 40
1
 40
1
 40
1
 40
1
 10
356.074953
 20
186.567358
 30
0.0
 10
356.819624
 20
186.770154
 30
0.0
 10
356.539132
 20
185.633662
 30
0.0
 10
357.248983
 20
184.571705
 30
0.0
  0
SPLINE
  5
5f5
100
AcDbEntity
  8
0
 62
1
100
AcDbSpline
 70
8
 71
3
 72
8
 73
4
 74
0
 40
0
 40
0
 40
0
 40
0
 40
1
 40
1
 40
1
 40
1
 10
357.248983
 20
184.571705
 30
0.0
 10
358.242687
 20
183.085091
 30
0.0
 10
359.717823
 20
181.347124
 30
0.0
 10
361.074951
 20
181.567357
 30
0.0
  0
SPLINE
  5
5f6
100
AcDbEntity
  8
0
 62
1
100
AcDbSpline
 70
8
 71
3
 72
8
 73
4
 74
0
 40
0
 40
0
 40
0
 40
0
 40
1
 40
1
 40
1
 40
1
 10
361.074951
 20
181.567357
 30
0.0
 10
364.753608
 20
182.164321
 30
0.0
 10
365.218713
 20
187.940273
 30
0.0
 10
366.074952
 20
191.567356
 30
0.0
  0
SPLINE
  5
5f7
100
AcDbEntity
  8
0
 62
1
100
AcDbSpline
 70
8
 71
3
 72
8
 73
4
 74
0
 40
0
 40
0
 40
0
 40
0
 40
1
 40
1
 40
1
 40
1
 10
366.074952
 20
191.567356
 30
0.0
 10
367.989559
 20
199.677765
 30
0.0
 10
366.074952
 20
216.567357
 30
0.0
 10
366.074952
 20
216.567357
 30
0.0
  0
LWPOLYLINE
  5
5f8
100
AcDbEntity
  8
0
 62
1
100
AcDbPolyline
 90
2
 70
1
 10
326.074951
 20
166.567355
 30
0.0
 10
366.074952
 20
166.567355
 30
0.0
  0
SPLINE
  5
5f9
100
AcDbEntity
  8
0
 62
1
100
AcDbSpline
 70
8
 71
3
 72
8
 73
4
 74
0
 40
0
 40
0
 40
0
 40
0
 40
1
 40
1
 40
1
 40
1
 10
352.168534
 20
216.567357
 30
0.0
 10
352.168534
 20
216.567357
 30
0.0
 10
351.330883
 20
217.335154
 30
0.0
 10
351.734327
 20
218.545484
 30
0.0
  0
LWPOLYLINE
  5
5fa
100
AcDbEntity
  8
0
 62
1
100
AcDbPolyline
 90
3
 70
1
 10
366.074952
 20
216.567357
 30
0.0
 10
354.223061
 20
216.567357
 30
0.0
 10
352.168534
 20
216.567357
 30
0.0
  0
SPLINE
  5
5fb
100
AcDbEntity
  8
0
 62
1
100
AcDbSpline
 70
8
 71
3
 72
8
 73
4
 74
0
 40
0
 40
0
 40
0
 40
0
 40
1
 40
1
 40
1
 40
1
 10
355.379004
 20
229.479509
 30
0.0
 10
355.379004
 20
229.479509
 30
0.0
 10
355.344683
 20
231.497584
 30
0.0
 10
356.074953
 20
231.567355
 30
0.0
  0
SPLINE
  5
5fc
100
AcDbEntity
  8
0
 62
1
100
AcDbSpline
 70
8
 71
3
 72
8
 73
4
 74
0
 40
0
 40
0
 40
0
 40
0
 40
1
 40
1
 40
1
 40
1
 10
356.074953
 20
231.567355
 30
0.0
 10
356.859099
 20
231.642274
 30
0.0
 10
356.537800
 20
230.599483
 30
0.0
 10
357.233238
 20
229.507534
 30
0.0
  0
SPLINE
  5
5fd
100
AcDbEntity
  8
0
 62
1
100
AcDbSpline
 70
8
 71
3
 72
8
 73
4
 74
0
 40
0
 40
0
 40
0
 40
0
 40
1
 40
1
 40
1
 40
1
 10
357.233238
 20
229.507534
 30
0.0
 10
358.255114
 20
227.903030
 30
0.0
 10
359.779184
 20
226.030632
 30
0.0
 10
361.074951
 20
226.567354
 30
0.0
  0
SPLINE
  5
5fe
100
AcDbEntity
  8
0
 62
1
100
AcDbSpline
 70
8
 71
3
 72
8
 73
4
 74
0
 40
0
 40
0
 40
0
 40
0
 40
1
 40
1
 40
1
 40
1
 10
361.074951
 20
226.567354
 30
0.0
 10
365.694350
 20
228.480764
 30
0.0
 10
365.694348
 20
239.653939
 30
0.0
 10
361.074951
 20
241.567355
 30
0.0
  0
SPLINE
  5
5ff
100
AcDbEntity
  8
0
 62
1
100
AcDbSpline
 70
8
 71
3
 72
8
 73
4
 74
0
 40
0
 40
0
 40
0
 40
0
 40
1
 40
1
 40
1
 40
1
 10
361.074951
 20
241.567355
 30
0.0
 10
359.750700
 20
242.115879
 30
0.0
 10
358.187996
 20
240.148195
 30
0.0
 10
357.166583
 20
238.521779
 30
0.0
  0
SPLINE
  5
600
100
AcDbEntity
  8
0
 62
1
100
AcDbSpline
 70
8
 71
3
 72
8
 73
4
 74
0
 40
0
 40
0
 40
0
 40
0
 40
1
 40
1
 40
1
 40
1
 10
357.166583
 20
238.521779
 30
0.0
 10
356.508381
 20
237.473708
 30
0.0
 10
356.784214
 20
236.335460
 30
0.0
 10
356.074953
 20
236.567354
 30
0.0
  0
SPLINE
  5
601
100
AcDbEntity
  8
0
 62
1
100
AcDbSpline
 70
8
 71
3
 72
8
 73
4
 74
0
 40
0
 40
0
 40
0
 40
0
 40
1
 40
1
 40
1
 40
1
 10
356.074953
 20
236.567354
 30
0.0
 10
355.452650
 20
236.770816
 30
0.0
 10
356.162662
 20
237.267889
 30
0.0
 10
356.315175
 20
238.516764
 30
0.0
  0
SPLINE
  5
602
100
AcDbEntity
  8
0
 62
1
100
AcDbSpline
 70
8
 71
3
 72
8
 73
4
 74
0
 40
0
 40
0
 40
0
 40
0
 40
1
 40
1
 40
1
 40
1
 10
356.315175
 20
238.516764
 30
0.0
 10
357.213717
 20
245.874614
 30
0.0
 10
360.361654
 20
272.265812
 30
0.0
 10
361.074951
 20
286.567355
 30
0.0
  0
SPLINE
  5
603
100
AcDbEntity
  8
0
 62
1
100
AcDbSpline
 70
8
 71
3
 72
8
 73
4
 74
0
 40
0
 40
0
 40
0
 40
0
 40
1
 40
1
 40
1
 40
1
 10
361.074951
 20
286.567355
 30
0.0
 10
361.573087
 20
296.554943
 30
0.0
 10
369.187372
 20
310.720255
 30
0.0
 10
361.074951
 20
316.567357
 30
0.0
  0
SPLINE
  5
604
100
AcDbEntity
  8
0
 62
1
100
AcDbSpline
 70
8
 71
3
 72
8
 73
4
 74
0
 40
0
 40
0
 40
0
 40
0
 40
1
 40
1
 40
1
 40
1
 10
361.074951
 20
316.567357
 30
0.0
 10
356.799330
 20
319.649049
 30
0.0
 10
351.345413
 20
311.567356
 30
0.0
 10
346.074950
 20
311.567356
 30
0.0
  0
LWPOLYLINE
  5
605
100
AcDbEntity
  8
0
 62
1
100
AcDbPolyline
 90
2
 70
1
 10
351.734327
 20
218.545484
 30
0.0
 10
355.379004
 20
229.479509
 30
0.0
  0
LWPOLYLINE
  5
606
100
AcDbEntity
  8
0
 62
1
100
AcDbPolyline
 90
2
 70
1
 10
346.074950
 20
311.567356
 30
0.0
 10
346.074950
 20
311.567356
 30
0.0
  0
LWPOLYLINE
  5
607
100
AcDbEntity
  8
0
 62
7
100
AcDbPolyline
 90
2
 70
0
 10
326.074951
 20
206.567338
 30
0.0
 10
366.074952
 20
206.567338
 30
0.0
  0
LWPOLYLINE
  5
608
100
AcDbEntity
  8
0
 62
7
100
AcDbPolyline
 90
2
 70
0
 10
326.074951
 20
196.567358
 30
0.0
 10
366.074952
 20
196.567358
 30
0.0
  0
SPLINE
  5
609
100
AcDbEntity
  8
0
 62
7
100
AcDbSpline
 70
8
 71
3
 72
8
 73
4
 74
0
 40
0
 40
0
 40
0
 40
0
 40
1
 40
1
 40
1
 40
1
 10
343.934668
 20
234.067350
 30
0.0
 10
343.934852
 20
233.581500
 30
0.0
 10
343.485133
 20
233.132510
 30
0.0
 10
342.754959
 20
232.889554
 30
0.0
  0
SPLINE
  5
60a
100
AcDbEntity
  8
0
 62
7
100
AcDbSpline
 70
8
 71
3
 72
8
 73
4
 74
0
 40
0
 40
0
 40
0
 40
0
 40
1
 40
1
 40
1
 40
1
 10
342.754959
 20
232.889554
 30
0.0
 10
342.024784
 20
232.646598
 30
0.0
 10
341.125119
 20
232.646598
 30
0.0
 10
340.394945
 20
232.889554
 30
0.0
  0
SPLINE
  5
60b
100
AcDbEntity
  8
0
 62
7
100
AcDbSpline
 70
8
 71
3
 72
8
 73
4
 74
0
 40
0
 40
0
 40
0
 40
0
 40
1
 40
1
 40
1
 40
1
 10
340.394945
 20
232.889554
 30
0.0
 10
339.664771
 20
233.132510
 30
0.0
 10
339.215052
 20
233.581500
 30
0.0
 10
339.215236
 20
234.067350
 30
0.0
  0
SPLINE
  5
60c
100
AcDbEntity
  8
0
 62
7
100
AcDbSpline
 70
8
 71
3
 72
8
 73
4
 74
0
 40
0
 40
0
 40
0
 40
0
 40
1
 40
1
 40
1
 40
1
 10
339.215236
 20
234.067350
 30
0.0
 10
339.215052
 20
234.553201
 30
0.0
 10
339.664771
 20
235.002191
 30
0.0
 10
340.394945
 20
235.245147
 30
0.0
  0
SPLINE
  5
60d
100
AcDbEntity
  8
0
 62
7
100
AcDbSpline
 70
8
 71
3
 72
8
 73
4
 74
0
 40
0
 40
0
 40
0
 40
0
 40
1
 40
1
 40
1
 40
1
 10
340.394945
 20
235.245147
 30
0.0
 10
341.125119
 20
235.488102
 30
0.0
 10
342.024784
 20
235.488102
 30
0.0
 10
342.754959
 20
235.245147
 30
0.0
  0
SPLINE
  5
60e
100
AcDbEntity
  8
0
 62
7
100
AcDbSpline
 70
8
 71
3
 72
8
 73
4
 74
0
 40
0
 40
0
 40
0
 40
0
 40
1
 40
1
 40
1
 40
1
 10
342.754959
 20
235.245147
 30
0.0
 10
343.485133
 20
235.002191
 30
0.0
 10
343.934852
 20
234.553201
 30
0.0
 10
343.934668
 20
234.067350
 30
0.0
  0
LWPOLYLINE
  5
60f
100
AcDbEntity
  8
0
 62
7
100
AcDbPolyline
 90
2
 70
0
 10
337.206375
 20
186.569723
 30
0.0
 10
355.206374
 20
186.569723
 30
0.0
  0
SPLINE
  5
610
100
AcDbEntity
  8
0
 62
7
100
AcDbSpline
 70
8
 71
3
 72
8
 73
4
 74
0
 40
0
 40
0
 40
0
 40
0
 40
1
 40
1
 40
1
 40
1
 10
352.928256
 20
234.067328
 30
0.0
 10
352.928725
 20
233.583658
 30
0.0
 10
352.480291
 20
233.136614
 30
0.0
 10
351.751983
 20
232.894701
 30
0.0
  0
SPLINE
  5
611
100
AcDbEntity
  8
0
 62
7
100
AcDbSpline
 70
8
 71
3
 72
8
 73
4
 74
0
 40
0
 40
0
 40
0
 40
0
 40
1
 40
1
 40
1
 40
1
 10
351.751983
 20
232.894701
 30
0.0
 10
351.023675
 20
232.652789
 30
0.0
 10
350.126227
 20
232.652789
 30
0.0
 10
349.397919
 20
232.894701
 30
0.0
  0
SPLINE
  5
612
100
AcDbEntity
  8
0
 62
7
100
AcDbSpline
 70
8
 71
3
 72
8
 73
4
 74
0
 40
0
 40
0
 40
0
 40
0
 40
1
 40
1
 40
1
 40
1
 10
349.397919
 20
232.894701
 30
0.0
 10
348.669611
 20
233.136614
 30
0.0
 10
348.221177
 20
233.583658
 30
0.0
 10
348.221646
 20
234.067328
 30
0.0
  0
SPLINE
  5
613
100
AcDbEntity
  8
0
 62
7
100
AcDbSpline
 70
8
 71
3
 72
8
 73
4
 74
0
 40
0
 40
0
 40
0
 40
0
 40
1
 40
1
 40
1
 40
1
 10
348.221646
 20
234.067328
 30
0.0
 10
348.221177
 20
234.550997
 30
0.0
 10
348.669611
 20
234.998041
 30
0.0
 10
349.397919
 20
235.239954
 30
0.0
  0
SPLINE
  5
614
100
AcDbEntity
  8
0
 62
7
100
AcDbSpline
 70
8
 71
3
 72
8
 73
4
 74
0
 40
0
 40
0
 40
0
 40
0
 40
1
 40
1
 40
1
 40
1
 10
349.397919
 20
235.239954
 30
0.0
 10
350.126227
 20
235.481867
 30
0.0
 10
351.023675
 20
235.481867
 30
0.0
 10
351.751983
 20
235.239954
 30
0.0
  0
SPLINE
  5
615
100
AcDbEntity
  8
0
 62
7
100
AcDbSpline
 70
8
 71
3
 72
8
 73
4
 74
0
 40
0
 40
0
 40
0
 40
0
 40
1
 40
1
 40
1
 40
1
 10
351.751983
 20
235.239954
 30
0.0
 10
352.480291
 20
234.998041
 30
0.0
 10
352.928725
 20
234.550997
 30
0.0
 10
352.928256
 20
234.067328
 30
0.0
  0
LWPOLYLINE
  5
616
100
AcDbEntity
  8
0
 62
7
100
AcDbPolyline
 90
2
 70
1
 10
343.934668
 20
234.067350
 30
0.0
 10
343.934668
 20
234.067350
 30
0.0
  0
SPLINE
  5
617
100
AcDbEntity
  8
0
 62
7
100
AcDbSpline
 70
8
 71
3
 72
8
 73
4
 74
0
 40
0
 40
0
 40
0
 40
0
 40
1
 40
1
 40
1
 40
1
 10
341.136648
 20
226.504418
 30
0.0
 10
341.136648
 20
226.504418
 30
0.0
 10
344.120203
 20
223.492261
 30
0.0
 10
346.041978
 20
223.474650
 30
0.0
  0
SPLINE
  5
618
100
AcDbEntity
  8
0
 62
7
100
AcDbSpline
 70
8
 71
3
 72
8
 73
4
 74
0
 40
0
 40
0
 40
0
 40
0
 40
1
 40
1
 40
1
 40
1
 10
346.041978
 20
223.474650
 30
0.0
 10
348.054344
 20
223.456306
 30
0.0
 10
351.235855
 20
226.552509
 30
0.0
 10
351.235855
 20
226.552509
 30
0.0
  0
SPLINE
  5
619
100
AcDbEntity
  8
0
 62
7
100
AcDbSpline
 70
8
 71
3
 72
8
 73
4
 74
0
 40
0
 40
0
 40
0
 40
0
 40
1
 40
1
 40
1
 40
1
 10
351.235855
 20
226.552509
 30
0.0
 10
351.235855
 20
226.552509
 30
0.0
 10
347.832162
 20
225.641157
 30
0.0
 10
346.090069
 20
225.638786
 30
0.0
  0
SPLINE
  5
61a
100
AcDbEntity
  8
0
 62
7
100
AcDbSpline
 70
8
 71
3
 72
8
 73
4
 74
0
 40
0
 40
0
 40
0
 40
0
 40
1
 40
1
 40
1
 40
1
 10
346.090069
 20
225.638786
 30
0.0
 10
344.413909
 20
225.635964
 30
0.0
 10
341.136648
 20
226.504418
 30
0.0
 10
341.136648
 20
226.504418
 30
0.0
  0
LWPOLYLINE
  5
61b
100
AcDbEntity
  8
0
 62
7
100
AcDbPolyline
 90
2
 70
1
 10
352.928256
 20
234.067328
 30
0.0
 10
352.928256
 20
234.067328
 30
0.0
  0
SPLINE
  5
61c
100
AcDbEntity
  8
0
 62
7
100
AcDbSpline
 70
8
 71
3
 72
8
 73
4
 74
0
 40
0
 40
0
 40
0
 40
0
 40
1
 40
1
 40
1
 40
1
 10
345.079764
 20
233.286885
 30
0.0
 10
345.079764
 20
233.286885
 30
0.0
 10
346.756889
 20
231.843151
 30
0.0
 10
347.343945
 20
231.015458
 30
0.0
  0
SPLINE
  5
61d
100
AcDbEntity
  8
0
 62
7
100
AcDbSpline
 70
8
 71
3
 72
8
 73
4
 74
0
 40
0
 40
0
 40
0
 40
0
 40
1
 40
1
 40
1
 40
1
 10
347.343945
 20
231.015458
 30
0.0
 10
347.930996
 20
230.187766
 30
0.0
 10
348.563123
 20
228.375721
 30
0.0
 10
348.563123
 20
228.375721
 30
0.0
  0
SPLINE
  5
61e
100
AcDbEntity
  8
0
 62
7
100
AcDbSpline
 70
8
 71
3
 72
8
 73
4
 74
0
 40
0
 40
0
 40
0
 40
0
 40
1
 40
1
 40
1
 40
1
 10
348.563123
 20
228.375721
 30
0.0
 10
348.563123
 20
228.375721
 30
0.0
 10
347.548444
 20
228.130896
 30
0.0
 10
347.082695
 20
228.252932
 30
0.0
  0
SPLINE
  5
61f
100
AcDbEntity
  8
0
 62
7
100
AcDbSpline
 70
8
 71
3
 72
8
 73
4
 74
0
 40
0
 40
0
 40
0
 40
0
 40
1
 40
1
 40
1
 40
1
 10
347.082695
 20
228.252932
 30
0.0
 10
346.639761
 20
228.369013
 30
0.0
 10
346.597219
 20
228.996232
 30
0.0
 10
346.124774
 20
228.989608
 30
0.0
  0
SPLINE
  5
620
100
AcDbEntity
  8
0
 62
7
100
AcDbSpline
 70
8
 71
3
 72
8
 73
4
 74
0
 40
0
 40
0
 40
0
 40
0
 40
1
 40
1
 40
1
 40
1
 10
346.124774
 20
228.989608
 30
0.0
 10
345.630540
 20
228.982609
 30
0.0
 10
345.166846
 20
228.191565
 30
0.0
 10
345.166846
 20
228.191565
 30
0.0
  0
SPLINE
  5
621
100
AcDbEntity
  8
0
 62
7
100
AcDbSpline
 70
8
 71
3
 72
8
 73
4
 74
0
 40
0
 40
0
 40
0
 40
0
 40
1
 40
1
 40
1
 40
1
 10
342.750112
 20
233.967362
 30
0.0
 10
342.750310
 20
233.690292
 30
0.0
 10
342.602608
 20
233.434184
 30
0.0
 10
342.362692
 20
233.295591
 30
0.0
  0
SPLINE
  5
622
100
AcDbEntity
  8
0
 62
7
100
AcDbSpline
 70
8
 71
3
 72
8
 73
4
 74
0
 40
0
 40
0
 40
0
 40
0
 40
1
 40
1
 40
1
 40
1
 10
342.362692
 20
233.295591
 30
0.0
 10
342.122775
 20
233.156999
 30
0.0
 10
341.827128
 20
233.156999
 30
0.0
 10
341.587211
 20
233.295591
 30
0.0
  0
SPLINE
  5
623
100
AcDbEntity
  8
0
 62
7
100
AcDbSpline
 70
8
 71
3
 72
8
 73
4
 74
0
 40
0
 40
0
 40
0
 40
0
 40
1
 40
1
 40
1
 40
1
 10
341.587211
 20
233.295591
 30
0.0
 10
341.347294
 20
233.434184
 30
0.0
 10
341.199593
 20
233.690292
 30
0.0
 10
341.199790
 20
233.967362
 30
0.0
  0
SPLINE
  5
624
100
AcDbEntity
  8
0
 62
7
100
AcDbSpline
 70
8
 71
3
 72
8
 73
4
 74
0
 40
0
 40
0
 40
0
 40
0
 40
1
 40
1
 40
1
 40
1
 10
341.199790
 20
233.967362
 30
0.0
 10
341.199593
 20
234.244432
 30
0.0
 10
341.347294
 20
234.500540
 30
0.0
 10
341.587211
 20
234.639132
 30
0.0
  0
SPLINE
  5
625
100
AcDbEntity
  8
0
 62
7
100
AcDbSpline
 70
8
 71
3
 72
8
 73
4
 74
0
 40
0
 40
0
 40
0
 40
0
 40
1
 40
1
 40
1
 40
1
 10
341.587211
 20
234.639132
 30
0.0
 10
341.827128
 20
234.777724
 30
0.0
 10
342.122775
 20
234.777724
 30
0.0
 10
342.362692
 20
234.639132
 30
0.0
  0
SPLINE
  5
626
100
AcDbEntity
  8
0
 62
7
100
AcDbSpline
 70
8
 71
3
 72
8
 73
4
 74
0
 40
0
 40
0
 40
0
 40
0
 40
1
 40
1
 40
1
 40
1
 10
342.362692
 20
234.639132
 30
0.0
 10
342.602608
 20
234.500540
 30
0.0
 10
342.750310
 20
234.244432
 30
0.0
 10
342.750112
 20
233.967362
 30
0.0
  0
LWPOLYLINE
  5
627
100
AcDbEntity
  8
0
 62
7
100
AcDbPolyline
 90
2
 70
1
 10
341.136648
 20
226.504418
 30
0.0
 10
341.136648
 20
226.504418
 30
0.0
  0
SPLINE
  5
628
100
AcDbEntity
  8
0
 62
7
100
AcDbSpline
 70
8
 71
3
 72
8
 73
4
 74
0
 40
0
 40
0
 40
0
 40
0
 40
1
 40
1
 40
1
 40
1
 10
351.739764
 20
233.967353
 30
0.0
 10
351.740079
 20
233.693902
 30
0.0
 10
351.594376
 20
233.441088
 30
0.0
 10
351.357613
 20
233.304272
 30
0.0
  0
SPLINE
  5
629
100
AcDbEntity
  8
0
 62
7
100
AcDbSpline
 70
8
 71
3
 72
8
 73
4
 74
0
 40
0
 40
0
 40
0
 40
0
 40
1
 40
1
 40
1
 40
1
 10
351.357613
 20
233.304272
 30
0.0
 10
351.120850
 20
233.167455
 30
0.0
 10
350.829055
 20
233.167455
 30
0.0
 10
350.592292
 20
233.304272
 30
0.0
  0
SPLINE
  5
62a
100
AcDbEntity
  8
0
 62
7
100
AcDbSpline
 70
8
 71
3
 72
8
 73
4
 74
0
 40
0
 40
0
 40
0
 40
0
 40
1
 40
1
 40
1
 40
1
 10
350.592292
 20
233.304272
 30
0.0
 10
350.355529
 20
233.441088
 30
0.0
 10
350.209825
 20
233.693902
 30
0.0
 10
350.210140
 20
233.967353
 30
0.0
  0
SPLINE
  5
62b
100
AcDbEntity
  8
0
 62
7
100
AcDbSpline
 70
8
 71
3
 72
8
 73
4
 74
0
 40
0
 40
0
 40
0
 40
0
 40
1
 40
1
 40
1
 40
1
 10
350.210140
 20
233.967353
 30
0.0
 10
350.209825
 20
234.240804
 30
0.0
 10
350.355529
 20
234.493618
 30
0.0
 10
350.592292
 20
234.630435
 30
0.0
  0
SPLINE
  5
62c
100
AcDbEntity
  8
0
 62
7
100
AcDbSpline
 70
8
 71
3
 72
8
 73
4
 74
0
 40
0
 40
0
 40
0
 40
0
 40
1
 40
1
 40
1
 40
1
 10
350.592292
 20
234.630435
 30
0.0
 10
350.829055
 20
234.767251
 30
0.0
 10
351.120850
 20
234.767251
 30
0.0
 10
351.357613
 20
234.630435
 30
0.0
  0
SPLINE
  5
62d
100
AcDbEntity
  8
0
 62
7
100
AcDbSpline
 70
8
 71
3
 72
8
 73
4
 74
0
 40
0
 40
0
 40
0
 40
0
 40
1
 40
1
 40
1
 40
1
 10
351.357613
 20
234.630435
 30
0.0
 10
351.594376
 20
234.493618
 30
0.0
 10
351.740079
 20
234.240804
 30
0.0
 10
351.739764
 20
233.967353
 30
0.0
  0
LWPOLYLINE
  5
62e
100
AcDbEntity
  8
0
 62
7
100
AcDbPolyline
 90
2
 70
1
 10
342.750112
 20
233.967362
 30
0.0
 10
342.750112
 20
233.967362
 30
0.0
  0
SPLINE
  5
62f
100
AcDbEntity
  8
0
 62
1
100
AcDbSpline
 70
8
 71
3
 72
8
 73
4
 74
0
 40
0
 40
0
 40
0
 40
0
 40
1
 40
1
 40
1
 40
1
 10
346.074950
 20
145.250002
 30
0.0
 10
340.804490
 20
145.250002
 30
0.0
 10
335.350573
 20
153.331695
 30
0.0
 10
331.074952
 20
150.250003
 30
0.0
  0
SPLINE
  5
630
100
AcDbEntity
  8
0
 62
1
100
AcDbSpline
 70
8
 71
3
 72
8
 73
4
 74
0
 40
0
 40
0
 40
0
 40
0
 40
1
 40
1
 40
1
 40
1
 10
331.074952
 20
150.250003
 30
0.0
 10
322.962529
 20
144.402901
 30
0.0
 10
330.576816
 20
130.237589
 30
0.0
 10
331.074952
 20
120.250001
 30
0.0
  0
SPLINE
  5
631
100
AcDbEntity
  8
0
 62
1
100
AcDbSpline
 70
8
 71
3
 72
8
 73
4
 74
0
 40
0
 40
0
 40
0
 40
0
 40
1
 40
1
 40
1
 40
1
 10
331.074952
 20
120.250001
 30
0.0
 10
331.734062
 20
107.034906
 30
0.0
 10
334.471956
 20
83.497214
 30
0.0
 10
335.593059
 20
74.192150
 30
0.0
  0
SPLINE
  5
632
100
AcDbEntity
  8
0
 62
1
100
AcDbSpline
 70
8
 71
3
 72
8
 73
4
 74
0
 40
0
 40
0
 40
0
 40
0
 40
1
 40
1
 40
1
 40
1
 10
335.593059
 20
74.192150
 30
0.0
 10
335.891162
 20
71.717930
 30
0.0
 10
337.326753
 20
70.680724
 30
0.0
 10
336.074950
 20
70.250000
 30
0.0
  0
SPLINE
  5
633
100
AcDbEntity
  8
0
 62
1
100
AcDbSpline
 70
8
 71
3
 72
8
 73
4
 74
0
 40
0
 40
0
 40
0
 40
0
 40
1
 40
1
 40
1
 40
1
 10
336.074950
 20
70.250000
 30
0.0
 10
334.966909
 20
69.868740
 30
0.0
 10
335.307436
 20
71.854975
 30
0.0
 10
334.264083
 20
73.263100
 30
0.0
  0
SPLINE
  5
634
100
AcDbEntity
  8
0
 62
1
100
AcDbSpline
 70
8
 71
3
 72
8
 73
4
 74
0
 40
0
 40
0
 40
0
 40
0
 40
1
 40
1
 40
1
 40
1
 10
334.264083
 20
73.263100
 30
0.0
 10
333.306666
 20
74.555243
 30
0.0
 10
332.116984
 20
75.681626
 30
0.0
 10
331.074949
 20
75.250001
 30
0.0
  0
SPLINE
  5
635
100
AcDbEntity
  8
0
 62
1
100
AcDbSpline
 70
8
 71
3
 72
8
 73
4
 74
0
 40
0
 40
0
 40
0
 40
0
 40
1
 40
1
 40
1
 40
1
 10
331.074949
 20
75.250001
 30
0.0
 10
326.455553
 20
73.336585
 30
0.0
 10
326.455550
 20
62.163413
 30
0.0
 10
331.074952
 20
60.250000
 30
0.0
  0
SPLINE
  5
636
100
AcDbEntity
  8
0
 62
1
100
AcDbSpline
 70
8
 71
3
 72
8
 73
4
 74
0
 40
0
 40
0
 40
0
 40
0
 40
1
 40
1
 40
1
 40
1
 10
331.074952
 20
60.250000
 30
0.0
 10
332.370806
 20
59.713241
 30
0.0
 10
333.894995
 20
61.585930
 30
0.0
 10
334.916871
 20
63.190504
 30
0.0
  0
SPLINE
  5
637
100
AcDbEntity
  8
0
 62
1
100
AcDbSpline
 70
8
 71
3
 72
8
 73
4
 74
0
 40
0
 40
0
 40
0
 40
0
 40
1
 40
1
 40
1
 40
1
 10
334.916871
 20
63.190504
 30
0.0
 10
335.612196
 20
64.282320
 30
0.0
 10
335.290931
 20
65.324903
 30
0.0
 10
336.074950
 20
65.250001
 30
0.0
  0
SPLINE
  5
638
100
AcDbEntity
  8
0
 62
1
100
AcDbSpline
 70
8
 71
3
 72
8
 73
4
 74
0
 40
0
 40
0
 40
0
 40
0
 40
1
 40
1
 40
1
 40
1
 10
336.074950
 20
65.250001
 30
0.0
 10
336.793482
 20
65.181353
 30
0.0
 10
336.759712
 20
63.195714
 30
0.0
 10
336.759712
 20
63.195714
 30
0.0
  0
LWPOLYLINE
  5
639
100
AcDbEntity
  8
0
 62
7
100
AcDbPolyline
 90
2
 70
1
 10
351.739764
 20
233.967353
 30
0.0
 10
351.739764
 20
233.967353
 30
0.0
  0
SPLINE
  5
63a
100
AcDbEntity
  8
0
 62
1
100
AcDbSpline
 70
8
 71
3
 72
8
 73
4
 74
0
 40
0
 40
0
 40
0
 40
0
 40
1
 40
1
 40
1
 40
1
 10
340.432535
 20
52.177253
 30
0.0
 10
341.093535
 20
51.032368
 30
0.0
 10
340.728597
 20
50.250003
 30
0.0
 10
340.235386
 20
50.250003
 30
0.0
  0
LWPOLYLINE
  5
63b
100
AcDbEntity
  8
0
 62
1
100
AcDbPolyline
 90
2
 70
1
 10
336.759712
 20
63.195714
 30
0.0
 10
340.432535
 20
52.177253
 30
0.0
  0
SPLINE
  5
63c
100
AcDbEntity
  8
0
 62
1
100
AcDbSpline
 70
8
 71
3
 72
8
 73
4
 74
0
 40
0
 40
0
 40
0
 40
0
 40
1
 40
1
 40
1
 40
1
 10
326.074951
 20
50.250003
 30
0.0
 10
326.074951
 20
50.250003
 30
0.0
 10
324.160344
 20
33.360411
 30
0.0
 10
326.074951
 20
25.250002
 30
0.0
  0
SPLINE
  5
63d
100
AcDbEntity
  8
0
 62
1
100
AcDbSpline
 70
8
 71
3
 72
8
 73
4
 74
0
 40
0
 40
0
 40
0
 40
0
 40
1
 40
1
 40
1
 40
1
 10
326.074951
 20
25.250002
 30
0.0
 10
326.931190
 20
21.622919
 30
0.0
 10
327.396295
 20
15.846967
 30
0.0
 10
331.074952
 20
15.250002
 30
0.0
  0
SPLINE
  5
63e
100
AcDbEntity
  8
0
 62
1
100
AcDbSpline
 70
8
 71
3
 72
8
 73
4
 74
0
 40
0
 40
0
 40
0
 40
0
 40
1
 40
1
 40
1
 40
1
 10
331.074952
 20
15.250002
 30
0.0
 10
332.428224
 20
15.030397
 30
0.0
 10
333.898839
 20
16.757882
 30
0.0
 10
334.892445
 20
18.241679
 30
0.0
  0
SPLINE
  5
63f
100
AcDbEntity
  8
0
 62
1
100
AcDbSpline
 70
8
 71
3
 72
8
 73
4
 74
0
 40
0
 40
0
 40
0
 40
0
 40
1
 40
1
 40
1
 40
1
 10
334.892445
 20
18.241679
 30
0.0
 10
335.607074
 20
19.308869
 30
0.0
 10
335.325422
 20
20.454276
 30
0.0
 10
336.074950
 20
20.250004
 30
0.0
  0
SPLINE
  5
640
100
AcDbEntity
  8
0
 62
1
100
AcDbSpline
 70
8
 71
3
 72
8
 73
4
 74
0
 40
0
 40
0
 40
0
 40
0
 40
1
 40
1
 40
1
 40
1
 10
336.074950
 20
20.250004
 30
0.0
 10
339.290985
 20
19.373523
 30
0.0
 10
337.827389
 20
13.085505
 30
0.0
 10
336.074950
 20
10.250004
 30
0.0
  0
SPLINE
  5
641
100
AcDbEntity
  8
0
 62
1
100
AcDbSpline
 70
8
 71
3
 72
8
 73
4
 74
0
 40
0
 40
0
 40
0
 40
0
 40
1
 40
1
 40
1
 40
1
 10
336.074950
 20
10.250004
 30
0.0
 10
334.115668
 20
7.079813
 30
0.0
 10
328.034236
 20
8.420191
 30
0.0
 10
326.074951
 20
5.250003
 30
0.0
  0
SPLINE
  5
642
100
AcDbEntity
  8
0
 62
1
100
AcDbSpline
 70
8
 71
3
 72
8
 73
4
 74
0
 40
0
 40
0
 40
0
 40
0
 40
1
 40
1
 40
1
 40
1
 10
326.074951
 20
5.250003
 30
0.0
 10
325.198732
 20
3.832251
 30
0.0
 10
326.074951
 20
0.250001
 30
0.0
 10
326.074951
 20
0.250001
 30
0.0
  0
LWPOLYLINE
  5
643
100
AcDbEntity
  8
0
 62
1
100
AcDbPolyline
 90
3
 70
1
 10
340.235386
 20
50.250003
 30
0.0
 10
338.237148
 20
50.250003
 30
0.0
 10
326.074951
 20
50.250003
 30
0.0
  0
SPLINE
  5
644
100
AcDbEntity
  8
0
 62
1
100
AcDbSpline
 70
8
 71
3
 72
8
 73
4
 74
0
 40
0
 40
0
 40
0
 40
0
 40
1
 40
1
 40
1
 40
1
 10
366.074952
 20
0.250001
 30
0.0
 10
366.074952
 20
0.250001
 30
0.0
 10
366.951171
 20
3.832251
 30
0.0
 10
366.074952
 20
5.250003
 30
0.0
  0
SPLINE
  5
645
100
AcDbEntity
  8
0
 62
1
100
AcDbSpline
 70
8
 71
3
 72
8
 73
4
 74
0
 40
0
 40
0
 40
0
 40
0
 40
1
 40
1
 40
1
 40
1
 10
366.074952
 20
5.250003
 30
0.0
 10
364.115667
 20
8.420191
 30
0.0
 10
358.034235
 20
7.079813
 30
0.0
 10
356.074953
 20
10.250004
 30
0.0
  0
SPLINE
  5
646
100
AcDbEntity
  8
0
 62
1
100
AcDbSpline
 70
8
 71
3
 72
8
 73
4
 74
0
 40
0
 40
0
 40
0
 40
0
 40
1
 40
1
 40
1
 40
1
 10
356.074953
 20
10.250004
 30
0.0
 10
354.322514
 20
13.085505
 30
0.0
 10
352.858751
 20
19.374130
 30
0.0
 10
356.074953
 20
20.250004
 30
0.0
  0
SPLINE
  5
647
100
AcDbEntity
  8
0
 62
1
100
AcDbSpline
 70
8
 71
3
 72
8
 73
4
 74
0
 40
0
 40
0
 40
0
 40
0
 40
1
 40
1
 40
1
 40
1
 10
356.074953
 20
20.250004
 30
0.0
 10
356.819624
 20
20.452800
 30
0.0
 10
356.539132
 20
19.316308
 30
0.0
 10
357.248983
 20
18.254351
 30
0.0
  0
SPLINE
  5
648
100
AcDbEntity
  8
0
 62
1
100
AcDbSpline
 70
8
 71
3
 72
8
 73
4
 74
0
 40
0
 40
0
 40
0
 40
0
 40
1
 40
1
 40
1
 40
1
 10
357.248983
 20
18.254351
 30
0.0
 10
358.242687
 20
16.767737
 30
0.0
 10
359.717823
 20
15.029770
 30
0.0
 10
361.074951
 20
15.250002
 30
0.0
  0
SPLINE
  5
649
100
AcDbEntity
  8
0
 62
1
100
AcDbSpline
 70
8
 71
3
 72
8
 73
4
 74
0
 40
0
 40
0
 40
0
 40
0
 40
1
 40
1
 40
1
 40
1
 10
361.074951
 20
15.250002
 30
0.0
 10
364.753608
 20
15.846967
 30
0.0
 10
365.218713
 20
21.622919
 30
0.0
 10
366.074952
 20
25.250002
 30
0.0
  0
SPLINE
  5
64a
100
AcDbEntity
  8
0
 62
1
100
AcDbSpline
 70
8
 71
3
 72
8
 73
4
 74
0
 40
0
 40
0
 40
0
 40
0
 40
1
 40
1
 40
1
 40
1
 10
366.074952
 20
25.250002
 30
0.0
 10
367.989559
 20
33.360411
 30
0.0
 10
366.074952
 20
50.250003
 30
0.0
 10
366.074952
 20
50.250003
 30
0.0
  0
LWPOLYLINE
  5
64b
100
AcDbEntity
  8
0
 62
1
100
AcDbPolyline
 90
2
 70
1
 10
326.074951
 20
0.250001
 30
0.0
 10
366.074952
 20
0.250001
 30
0.0
  0
SPLINE
  5
64c
100
AcDbEntity
  8
0
 62
1
100
AcDbSpline
 70
8
 71
3
 72
8
 73
4
 74
0
 40
0
 40
0
 40
0
 40
0
 40
1
 40
1
 40
1
 40
1
 10
352.168534
 20
50.250003
 30
0.0
 10
352.168534
 20
50.250003
 30
0.0
 10
351.330883
 20
51.017800
 30
0.0
 10
351.734327
 20
52.228129
 30
0.0
  0
LWPOLYLINE
  5
64d
100
AcDbEntity
  8
0
 62
1
100
AcDbPolyline
 90
3
 70
1
 10
366.074952
 20
50.250003
 30
0.0
 10
354.223061
 20
50.250003
 30
0.0
 10
352.168534
 20
50.250003
 30
0.0
  0
SPLINE
  5
64e
100
AcDbEntity
  8
0
 62
1
100
AcDbSpline
 70
8
 71
3
 72
8
 73
4
 74
0
 40
0
 40
0
 40
0
 40
0
 40
1
 40
1
 40
1
 40
1
 10
355.379004
 20
63.162155
 30
0.0
 10
355.379004
 20
63.162155
 30
0.0
 10
355.344683
 20
65.180230
 30
0.0
 10
356.074953
 20
65.250001
 30
0.0
  0
SPLINE
  5
64f
100
AcDbEntity
  8
0
 62
1
100
AcDbSpline
 70
8
 71
3
 72
8
 73
4
 74
0
 40
0
 40
0
 40
0
 40
0
 40
1
 40
1
 40
1
 40
1
 10
356.074953
 20
65.250001
 30
0.0
 10
356.859099
 20
65.324920
 30
0.0
 10
356.537800
 20
64.282128
 30
0.0
 10
357.233238
 20
63.190180
 30
0.0
  0
SPLINE
  5
650
100
AcDbEntity
  8
0
 62
1
100
AcDbSpline
 70
8
 71
3
 72
8
 73
4
 74
0
 40
0
 40
0
 40
0
 40
0
 40
1
 40
1
 40
1
 40
1
 10
357.233238
 20
63.190180
 30
0.0
 10
358.255114
 20
61.585676
 30
0.0
 10
359.779184
 20
59.713278
 30
0.0
 10
361.074951
 20
60.250000
 30
0.0
  0
SPLINE
  5
651
100
AcDbEntity
  8
0
 62
1
100
AcDbSpline
 70
8
 71
3
 72
8
 73
4
 74
0
 40
0
 40
0
 40
0
 40
0
 40
1
 40
1
 40
1
 40
1
 10
361.074951
 20
60.250000
 30
0.0
 10
365.694350
 20
62.163410
 30
0.0
 10
365.694348
 20
73.336585
 30
0.0
 10
361.074951
 20
75.250001
 30
0.0
  0
SPLINE
  5
652
100
AcDbEntity
  8
0
 62
1
100
AcDbSpline
 70
8
 71
3
 72
8
 73
4
 74
0
 40
0
 40
0
 40
0
 40
0
 40
1
 40
1
 40
1
 40
1
 10
361.074951
 20
75.250001
 30
0.0
 10
359.750700
 20
75.798525
 30
0.0
 10
358.187996
 20
73.830841
 30
0.0
 10
357.166583
 20
72.204425
 30
0.0
  0
SPLINE
  5
653
100
AcDbEntity
  8
0
 62
1
100
AcDbSpline
 70
8
 71
3
 72
8
 73
4
 74
0
 40
0
 40
0
 40
0
 40
0
 40
1
 40
1
 40
1
 40
1
 10
357.166583
 20
72.204425
 30
0.0
 10
356.508381
 20
71.156353
 30
0.0
 10
356.784214
 20
70.018106
 30
0.0
 10
356.074953
 20
70.250000
 30
0.0
  0
SPLINE
  5
654
100
AcDbEntity
  8
0
 62
1
100
AcDbSpline
 70
8
 71
3
 72
8
 73
4
 74
0
 40
0
 40
0
 40
0
 40
0
 40
1
 40
1
 40
1
 40
1
 10
356.074953
 20
70.250000
 30
0.0
 10
355.452650
 20
70.453462
 30
0.0
 10
356.162662
 20
70.950534
 30
0.0
 10
356.315175
 20
72.199410
 30
0.0
  0
SPLINE
  5
655
100
AcDbEntity
  8
0
 62
1
100
AcDbSpline
 70
8
 71
3
 72
8
 73
4
 74
0
 40
0
 40
0
 40
0
 40
0
 40
1
 40
1
 40
1
 40
1
 10
356.315175
 20
72.199410
 30
0.0
 10
357.213717
 20
79.557259
 30
0.0
 10
360.361654
 20
105.948458
 30
0.0
 10
361.074951
 20
120.250001
 30
0.0
  0
SPLINE
  5
656
100
AcDbEntity
  8
0
 62
1
100
AcDbSpline
 70
8
 71
3
 72
8
 73
4
 74
0
 40
0
 40
0
 40
0
 40
0
 40
1
 40
1
 40
1
 40
1
 10
361.074951
 20
120.250001
 30
0.0
 10
361.573087
 20
130.237589
 30
0.0
 10
369.187372
 20
144.402901
 30
0.0
 10
361.074951
 20
150.250003
 30
0.0
  0
SPLINE
  5
657
100
AcDbEntity
  8
0
 62
1
100
AcDbSpline
 70
8
 71
3
 72
8
 73
4
 74
0
 40
0
 40
0
 40
0
 40
0
 40
1
 40
1
 40
1
 40
1
 10
361.074951
 20
150.250003
 30
0.0
 10
356.799330
 20
153.331695
 30
0.0
 10
351.345413
 20
145.250002
 30
0.0
 10
346.074950
 20
145.250002
 30
0.0
  0
LWPOLYLINE
  5
658
100
AcDbEntity
  8
0
 62
1
100
AcDbPolyline
 90
2
 70
1
 10
351.734327
 20
52.228129
 30
0.0
 10
355.379004
 20
63.162155
 30
0.0
  0
LWPOLYLINE
  5
659
100
AcDbEntity
  8
0
 62
1
100
AcDbPolyline
 90
2
 70
1
 10
346.074950
 20
145.250002
 30
0.0
 10
346.074950
 20
145.250002
 30
0.0
  0
LWPOLYLINE
  5
65a
100
AcDbEntity
  8
0
 62
7
100
AcDbPolyline
 90
2
 70
0
 10
326.074951
 20
40.249983
 30
0.0
 10
366.074952
 20
40.249983
 30
0.0
  0
LWPOLYLINE
  5
65b
100
AcDbEntity
  8
0
 62
7
100
AcDbPolyline
 90
2
 70
0
 10
326.074951
 20
30.250003
 30
0.0
 10
366.074952
 20
30.250003
 30
0.0
  0
SPLINE
  5
65c
100
AcDbEntity
  8
0
 62
7
100
AcDbSpline
 70
8
 71
3
 72
8
 73
4
 74
0
 40
0
 40
0
 40
0
 40
0
 40
1
 40
1
 40
1
 40
1
 10
343.934668
 20
67.749996
 30
0.0
 10
343.934852
 20
67.264146
 30
0.0
 10
343.485133
 20
66.815156
 30
0.0
 10
342.754959
 20
66.572200
 30
0.0
  0
SPLINE
  5
65d
100
AcDbEntity
  8
0
 62
7
100
AcDbSpline
 70
8
 71
3
 72
8
 73
4
 74
0
 40
0
 40
0
 40
0
 40
0
 40
1
 40
1
 40
1
 40
1
 10
342.754959
 20
66.572200
 30
0.0
 10
342.024784
 20
66.329244
 30
0.0
 10
341.125119
 20
66.329244
 30
0.0
 10
340.394945
 20
66.572200
 30
0.0
  0
SPLINE
  5
65e
100
AcDbEntity
  8
0
 62
7
100
AcDbSpline
 70
8
 71
3
 72
8
 73
4
 74
0
 40
0
 40
0
 40
0
 40
0
 40
1
 40
1
 40
1
 40
1
 10
340.394945
 20
66.572200
 30
0.0
 10
339.664771
 20
66.815156
 30
0.0
 10
339.215052
 20
67.264146
 30
0.0
 10
339.215236
 20
67.749996
 30
0.0
  0
SPLINE
  5
65f
100
AcDbEntity
  8
0
 62
7
100
AcDbSpline
 70
8
 71
3
 72
8
 73
4
 74
0
 40
0
 40
0
 40
0
 40
0
 40
1
 40
1
 40
1
 40
1
 10
339.215236
 20
67.749996
 30
0.0
 10
339.215052
 20
68.235847
 30
0.0
 10
339.664771
 20
68.684836
 30
0.0
 10
340.394945
 20
68.927792
 30
0.0
  0
SPLINE
  5
660
100
AcDbEntity
  8
0
 62
7
100
AcDbSpline
 70
8
 71
3
 72
8
 73
4
 74
0
 40
0
 40
0
 40
0
 40
0
 40
1
 40
1
 40
1
 40
1
 10
340.394945
 20
68.927792
 30
0.0
 10
341.125119
 20
69.170748
 30
0.0
 10
342.024784
 20
69.170748
 30
0.0
 10
342.754959
 20
68.927792
 30
0.0
  0
SPLINE
  5
661
100
AcDbEntity
  8
0
 62
7
100
AcDbSpline
 70
8
 71
3
 72
8
 73
4
 74
0
 40
0
 40
0
 40
0
 40
0
 40
1
 40
1
 40
1
 40
1
 10
342.754959
 20
68.927792
 30
0.0
 10
343.485133
 20
68.684836
 30
0.0
 10
343.934852
 20
68.235847
 30
0.0
 10
343.934668
 20
67.749996
 30
0.0
  0
LWPOLYLINE
  5
662
100
AcDbEntity
  8
0
 62
7
100
AcDbPolyline
 90
2
 70
0
 10
337.206375
 20
20.252369
 30
0.0
 10
355.206374
 20
20.252369
 30
0.0
  0
SPLINE
  5
663
100
AcDbEntity
  8
0
 62
7
100
AcDbSpline
 70
8
 71
3
 72
8
 73
4
 74
0
 40
0
 40
0
 40
0
 40
0
 40
1
 40
1
 40
1
 40
1
 10
352.928256
 20
67.749973
 30
0.0
 10
352.928725
 20
67.266304
 30
0.0
 10
352.480291
 20
66.819260
 30
0.0
 10
351.751983
 20
66.577347
 30
0.0
  0
SPLINE
  5
664
100
AcDbEntity
  8
0
 62
7
100
AcDbSpline
 70
8
 71
3
 72
8
 73
4
 74
0
 40
0
 40
0
 40
0
 40
0
 40
1
 40
1
 40
1
 40
1
 10
351.751983
 20
66.577347
 30
0.0
 10
351.023675
 20
66.335435
 30
0.0
 10
350.126227
 20
66.335435
 30
0.0
 10
349.397919
 20
66.577347
 30
0.0
  0
SPLINE
  5
665
100
AcDbEntity
  8
0
 62
7
100
AcDbSpline
 70
8
 71
3
 72
8
 73
4
 74
0
 40
0
 40
0
 40
0
 40
0
 40
1
 40
1
 40
1
 40
1
 10
349.397919
 20
66.577347
 30
0.0
 10
348.669611
 20
66.819260
 30
0.0
 10
348.221177
 20
67.266304
 30
0.0
 10
348.221646
 20
67.749973
 30
0.0
  0
SPLINE
  5
666
100
AcDbEntity
  8
0
 62
7
100
AcDbSpline
 70
8
 71
3
 72
8
 73
4
 74
0
 40
0
 40
0
 40
0
 40
0
 40
1
 40
1
 40
1
 40
1
 10
348.221646
 20
67.749973
 30
0.0
 10
348.221177
 20
68.233643
 30
0.0
 10
348.669611
 20
68.680687
 30
0.0
 10
349.397919
 20
68.922600
 30
0.0
  0
SPLINE
  5
667
100
AcDbEntity
  8
0
 62
7
100
AcDbSpline
 70
8
 71
3
 72
8
 73
4
 74
0
 40
0
 40
0
 40
0
 40
0
 40
1
 40
1
 40
1
 40
1
 10
349.397919
 20
68.922600
 30
0.0
 10
350.126227
 20
69.164512
 30
0.0
 10
351.023675
 20
69.164512
 30
0.0
 10
351.751983
 20
68.922600
 30
0.0
  0
SPLINE
  5
668
100
AcDbEntity
  8
0
 62
7
100
AcDbSpline
 70
8
 71
3
 72
8
 73
4
 74
0
 40
0
 40
0
 40
0
 40
0
 40
1
 40
1
 40
1
 40
1
 10
351.751983
 20
68.922600
 30
0.0
 10
352.480291
 20
68.680687
 30
0.0
 10
352.928725
 20
68.233643
 30
0.0
 10
352.928256
 20
67.749973
 30
0.0
  0
LWPOLYLINE
  5
669
100
AcDbEntity
  8
0
 62
7
100
AcDbPolyline
 90
2
 70
1
 10
343.934668
 20
67.749996
 30
0.0
 10
343.934668
 20
67.749996
 30
0.0
  0
SPLINE
  5
66a
100
AcDbEntity
  8
0
 62
7
100
AcDbSpline
 70
8
 71
3
 72
8
 73
4
 74
0
 40
0
 40
0
 40
0
 40
0
 40
1
 40
1
 40
1
 40
1
 10
341.136648
 20
60.187064
 30
0.0
 10
341.136648
 20
60.187064
 30
0.0
 10
344.120203
 20
57.174906
 30
0.0
 10
346.041978
 20
57.157296
 30
0.0
  0
SPLINE
  5
66b
100
AcDbEntity
  8
0
 62
7
100
AcDbSpline
 70
8
 71
3
 72
8
 73
4
 74
0
 40
0
 40
0
 40
0
 40
0
 40
1
 40
1
 40
1
 40
1
 10
346.041978
 20
57.157296
 30
0.0
 10
348.054344
 20
57.138951
 30
0.0
 10
351.235855
 20
60.235155
 30
0.0
 10
351.235855
 20
60.235155
 30
0.0
  0
SPLINE
  5
66c
100
AcDbEntity
  8
0
 62
7
100
AcDbSpline
 70
8
 71
3
 72
8
 73
4
 74
0
 40
0
 40
0
 40
0
 40
0
 40
1
 40
1
 40
1
 40
1
 10
351.235855
 20
60.235155
 30
0.0
 10
351.235855
 20
60.235155
 30
0.0
 10
347.832162
 20
59.323803
 30
0.0
 10
346.090069
 20
59.321432
 30
0.0
  0
SPLINE
  5
66d
100
AcDbEntity
  8
0
 62
7
100
AcDbSpline
 70
8
 71
3
 72
8
 73
4
 74
0
 40
0
 40
0
 40
0
 40
0
 40
1
 40
1
 40
1
 40
1
 10
346.090069
 20
59.321432
 30
0.0
 10
344.413909
 20
59.318610
 30
0.0
 10
341.136648
 20
60.187064
 30
0.0
 10
341.136648
 20
60.187064
 30
0.0
  0
LWPOLYLINE
  5
66e
100
AcDbEntity
  8
0
 62
7
100
AcDbPolyline
 90
2
 70
1
 10
352.928256
 20
67.749973
 30
0.0
 10
352.928256
 20
67.749973
 30
0.0
  0
SPLINE
  5
66f
100
AcDbEntity
  8
0
 62
7
100
AcDbSpline
 70
8
 71
3
 72
8
 73
4
 74
0
 40
0
 40
0
 40
0
 40
0
 40
1
 40
1
 40
1
 40
1
 10
345.079764
 20
66.969530
 30
0.0
 10
345.079764
 20
66.969530
 30
0.0
 10
346.756889
 20
65.525797
 30
0.0
 10
347.343945
 20
64.698104
 30
0.0
  0
SPLINE
  5
670
100
AcDbEntity
  8
0
 62
7
100
AcDbSpline
 70
8
 71
3
 72
8
 73
4
 74
0
 40
0
 40
0
 40
0
 40
0
 40
1
 40
1
 40
1
 40
1
 10
347.343945
 20
64.698104
 30
0.0
 10
347.930996
 20
63.870411
 30
0.0
 10
348.563123
 20
62.058367
 30
0.0
 10
348.563123
 20
62.058367
 30
0.0
  0
SPLINE
  5
671
100
AcDbEntity
  8
0
 62
7
100
AcDbSpline
 70
8
 71
3
 72
8
 73
4
 74
0
 40
0
 40
0
 40
0
 40
0
 40
1
 40
1
 40
1
 40
1
 10
348.563123
 20
62.058367
 30
0.0
 10
348.563123
 20
62.058367
 30
0.0
 10
347.548444
 20
61.813542
 30
0.0
 10
347.082695
 20
61.935578
 30
0.0
  0
SPLINE
  5
672
100
AcDbEntity
  8
0
 62
7
100
AcDbSpline
 70
8
 71
3
 72
8
 73
4
 74
0
 40
0
 40
0
 40
0
 40
0
 40
1
 40
1
 40
1
 40
1
 10
347.082695
 20
61.935578
 30
0.0
 10
346.639761
 20
62.051658
 30
0.0
 10
346.597219
 20
62.678878
 30
0.0
 10
346.124774
 20
62.672254
 30
0.0
  0
SPLINE
  5
673
100
AcDbEntity
  8
0
 62
7
100
AcDbSpline
 70
8
 71
3
 72
8
 73
4
 74
0
 40
0
 40
0
 40
0
 40
0
 40
1
 40
1
 40
1
 40
1
 10
346.124774
 20
62.672254
 30
0.0
 10
345.630540
 20
62.665255
 30
0.0
 10
345.166846
 20
61.874211
 30
0.0
 10
345.166846
 20
61.874211
 30
0.0
  0
SPLINE
  5
674
100
AcDbEntity
  8
0
 62
7
100
AcDbSpline
 70
8
 71
3
 72
8
 73
4
 74
0
 40
0
 40
0
 40
0
 40
0
 40
1
 40
1
 40
1
 40
1
 10
342.750112
 20
67.650008
 30
0.0
 10
342.750310
 20
67.372937
 30
0.0
 10
342.602608
 20
67.116829
 30
0.0
 10
342.362692
 20
66.978237
 30
0.0
  0
SPLINE
  5
675
100
AcDbEntity
  8
0
 62
7
100
AcDbSpline
 70
8
 71
3
 72
8
 73
4
 74
0
 40
0
 40
0
 40
0
 40
0
 40
1
 40
1
 40
1
 40
1
 10
342.362692
 20
66.978237
 30
0.0
 10
342.122775
 20
66.839645
 30
0.0
 10
341.827128
 20
66.839645
 30
0.0
 10
341.587211
 20
66.978237
 30
0.0
  0
SPLINE
  5
676
100
AcDbEntity
  8
0
 62
7
100
AcDbSpline
 70
8
 71
3
 72
8
 73
4
 74
0
 40
0
 40
0
 40
0
 40
0
 40
1
 40
1
 40
1
 40
1
 10
341.587211
 20
66.978237
 30
0.0
 10
341.347294
 20
67.116829
 30
0.0
 10
341.199593
 20
67.372937
 30
0.0
 10
341.199790
 20
67.650008
 30
0.0
  0
SPLINE
  5
677
100
AcDbEntity
  8
0
 62
7
100
AcDbSpline
 70
8
 71
3
 72
8
 73
4
 74
0
 40
0
 40
0
 40
0
 40
0
 40
1
 40
1
 40
1
 40
1
 10
341.199790
 20
67.650008
 30
0.0
 10
341.199593
 20
67.927078
 30
0.0
 10
341.347294
 20
68.183186
 30
0.0
 10
341.587211
 20
68.321778
 30
0.0
  0
SPLINE
  5
678
100
AcDbEntity
  8
0
 62
7
100
AcDbSpline
 70
8
 71
3
 72
8
 73
4
 74
0
 40
0
 40
0
 40
0
 40
0
 40
1
 40
1
 40
1
 40
1
 10
341.587211
 20
68.321778
 30
0.0
 10
341.827128
 20
68.460370
 30
0.0
 10
342.122775
 20
68.460370
 30
0.0
 10
342.362692
 20
68.321778
 30
0.0
  0
SPLINE
  5
679
100
AcDbEntity
  8
0
 62
7
100
AcDbSpline
 70
8
 71
3
 72
8
 73
4
 74
0
 40
0
 40
0
 40
0
 40
0
 40
1
 40
1
 40
1
 40
1
 10
342.362692
 20
68.321778
 30
0.0
 10
342.602608
 20
68.183186
 30
0.0
 10
342.750310
 20
67.927078
 30
0.0
 10
342.750112
 20
67.650008
 30
0.0
  0
LWPOLYLINE
  5
67a
100
AcDbEntity
  8
0
 62
7
100
AcDbPolyline
 90
2
 70
1
 10
341.136648
 20
60.187064
 30
0.0
 10
341.136648
 20
60.187064
 30
0.0
  0
SPLINE
  5
67b
100
AcDbEntity
  8
0
 62
7
100
AcDbSpline
 70
8
 71
3
 72
8
 73
4
 74
0
 40
0
 40
0
 40
0
 40
0
 40
1
 40
1
 40
1
 40
1
 10
351.739764
 20
67.649999
 30
0.0
 10
351.740079
 20
67.376548
 30
0.0
 10
351.594376
 20
67.123734
 30
0.0
 10
351.357613
 20
66.986918
 30
0.0
  0
SPLINE
  5
67c
100
AcDbEntity
  8
0
 62
7
100
AcDbSpline
 70
8
 71
3
 72
8
 73
4
 74
0
 40
0
 40
0
 40
0
 40
0
 40
1
 40
1
 40
1
 40
1
 10
351.357613
 20
66.986918
 30
0.0
 10
351.120850
 20
66.850101
 30
0.0
 10
350.829055
 20
66.850101
 30
0.0
 10
350.592292
 20
66.986918
 30
0.0
  0
SPLINE
  5
67d
100
AcDbEntity
  8
0
 62
7
100
AcDbSpline
 70
8
 71
3
 72
8
 73
4
 74
0
 40
0
 40
0
 40
0
 40
0
 40
1
 40
1
 40
1
 40
1
 10
350.592292
 20
66.986918
 30
0.0
 10
350.355529
 20
67.123734
 30
0.0
 10
350.209825
 20
67.376548
 30
0.0
 10
350.210140
 20
67.649999
 30
0.0
  0
SPLINE
  5
67e
100
AcDbEntity
  8
0
 62
7
100
AcDbSpline
 70
8
 71
3
 72
8
 73
4
 74
0
 40
0
 40
0
 40
0
 40
0
 40
1
 40
1
 40
1
 40
1
 10
350.210140
 20
67.649999
 30
0.0
 10
350.209825
 20
67.923450
 30
0.0
 10
350.355529
 20
68.176264
 30
0.0
 10
350.592292
 20
68.313080
 30
0.0
  0
SPLINE
  5
67f
100
AcDbEntity
  8
0
 62
7
100
AcDbSpline
 70
8
 71
3
 72
8
 73
4
 74
0
 40
0
 40
0
 40
0
 40
0
 40
1
 40
1
 40
1
 40
1
 10
350.592292
 20
68.313080
 30
0.0
 10
350.829055
 20
68.449897
 30
0.0
 10
351.120850
 20
68.449897
 30
0.0
 10
351.357613
 20
68.313080
 30
0.0
  0
SPLINE
  5
680
100
AcDbEntity
  8
0
 62
7
100
AcDbSpline
 70
8
 71
3
 72
8
 73
4
 74
0
 40
0
 40
0
 40
0
 40
0
 40
1
 40
1
 40
1
 40
1
 10
351.357613
 20
68.313080
 30
0.0
 10
351.594376
 20
68.176264
 30
0.0
 10
351.740079
 20
67.923450
 30
0.0
 10
351.739764
 20
67.649999
 30
0.0
  0
LWPOLYLINE
  5
681
100
AcDbEntity
  8
0
 62
7
100
AcDbPolyline
 90
2
 70
1
 10
342.750112
 20
67.650008
 30
0.0
 10
342.750112
 20
67.650008
 30
0.0
  0
LWPOLYLINE
  5
682
100
AcDbEntity
  8
0
 62
7
100
AcDbPolyline
 90
2
 70
1
 10
351.739764
 20
67.649999
 30
0.0
 10
351.739764
 20
67.649999
 30
0.0
  0
ENDSEC
  0
SECTION
  2
OBJECTS
  0
DICTIONARY
  5
C
330
0
100
AcDbDictionary
  3
ACAD_GROUP
350
D
  3
ACAD_MLINESTYLE
350
17
  0
DICTIONARY
  5
D
330
C
100
AcDbDictionary
  0
DICTIONARY
  5
1A
330
C
100
AcDbDictionary
  0
DICTIONARY
  5
17
330
C
100
AcDbDictionary
  3
STANDARD
350
18
  0
DICTIONARY
  5
19
330
C
100
AcDbDictionary
  0
ENDSEC
  0
EOF
